Lord Of The Rings (Intro) Uke tab by Howard Shore

Ukulele Tab without chords.

Add tab to your SongBook
Tablature / ChordsFont size: A- A A+

Don't know how to read a tab or a chord ? Check out these uke lessons:

Detailed guide to strumming and picking
How to read uke tabs
Reading chord diagrams

A--------0----------0-2-5-4-0------------
E----0-2---2-0----2-----------2-3-2-0----
C—2-----------2--------------------------
G----------------------------------------

A--------0----------0-2-2--0-------------
E----0-2---2-0----2-----------2--0-------
C—2-----------2--------------------------
G----------------------------------------

A----------------------------------------
E---------------------0-1--0------0------
C—2--2-2-0--0-0-2--2--------2--0----2----
G----------------------------------------


Tweaked to fit my liking. Source in comments.

 

Tab comments (2)
You must be logged in to join the discussion
or Register

 

ukulauryn avatar
flag for US(ISO2) (San Gabriel)
Thanks for ripping me off.
07 Feb 2013
RollerCat avatar
flag for CA(ISO2) (Victoria)
Source is http://www.ukulele-tabs.com/uke-songs/howard-shore/lord-of-the-rings-theme-uke-tab-30313.html
07 Feb 2013
About this song

No information about this song.