The Last Of Us Theme Uke tab by Gustavo Santaolalla

Ukulele Tab without chords.

Rate song!
PrintAdd tab to your SongBook

Tablature / Chords (Full Song)

Font size: A- A A+

Album:  unknown
Key: unknownTablature (no chords)
A|-----0-----0-----0-----0-----0-----0-----0-----0----0|
E|---0-----0-----0-----0-----0-----0-----0-----0-----0-|
C|-----------------------------------------------------|
G|-5-----5-----5-----5-----5-----5-----5-----5-----5---|


A|-----0-----0-----0-----0-----0-----0-----0-----0----0|
E|---0-----0-----0-----0-----0-----0-----0-----0-----0-|
C|-----------------------------------------------------|
G|-5-----2-----7-----4-----5-----5-----5-----5-----5---|


A|-----0-----0-----0-----0-----0-----0-----0-----0----0|
E|---0-----0-----0-----0-----0-----0-----0-----0-----0-|
C|-----------------------------------------------------|
G|-2-----7-----4-----9-----9-----9-----9-----5-----2---|


A|-----0-----0-----0-----0-----0-----0|
E|---0-----0-----0-----0-----0-----0--|
C|------------------------------------|
G|-7-----4-----5-----5-----5-----5----|

Uke tab by , 16 Jul 2020

Tab comments (0)

No comment yet :(
Need help, a tip to share, or simply want to talk about this song? Start the discussion!

Something to say?
Share your strumming patterns, chords or tips to play this tab! ;)

Top Tabs & Chords by Gustavo Santaolalla, don't miss these songs!

About this song: The Last Of Us Theme

No information about this song.

Did you cover The Last Of Us Theme on your Ukulele? Share your work!
Submit a cover