Somebody That I Used To Know (Intro) Uke tab by Gotye

Ukulele Tab without chords.

Add tab to your SongBook
Tablature / ChordsFont size: A- A A+

Don't know how to read a tab or a chord ? Check out these uke lessons:

Detailed guide to strumming and picking
How to read uke tabs
Reading chord diagrams

A -------------------------------|
E -------3--3--5--6-----5--3--3--|
C -------------------------------|
G -7--7--------------5-----------|

A ---------------------|
E ---------------------|
C -5--5--4-4-----------|
G -----------7--7---5--|

A -------------------------------|
E -------3--3--5--6-----5--3--3--|
C -------------------------------|
G -7--7--------------5-----------|

A ------------------------7----|
E -------------------------0--|
C ------------------------9---|
G --7--7----9----7--7-----7---|

 

Tab comments (1)
You must be logged in to join the discussion
or Register

 

Benpaco avatar
flag for US(ISO2) (California)
Very nice! The arist is Gotye, though.
27 Jan 2012
About this song

This song by Gotye also features vocals by Kimbra.