Stylo (main Riffs) Uke tab by Gorillaz

Ukulele Tab without chords.

8.7/10
PrintAdd tab to your SongBook

Tablature / Chords (Full Song)

Font size: A- A A+

Artist: 
Album:  unknown
Key: unknownTablature (no chords)
|---------------------------------------------|
|---------------------------------4--3--1-----|
|--0--0-0---0--0-0---0--0-0----------------3--|
|---------------------------------------------|

|---------------------------|
|--3----1-----3----------3--|
|------------------0--------|
|----------3----------3-----|

|----------------------------------------------|
|--1--1-1---1--1-1---1--1-1--------4--3--1-----|
|-------------------------------------------3--|
|----------------------------------------------|

Uke tab by , 30 Nov 2011

Tab comments (0)

No comment yet :(
Need help, a tip to share, or simply want to talk about this song? Start the discussion!

Something to say?
Share your strumming patterns, chords or tips to play this tab! ;)

About this song: Stylo (main Riffs)

No information about this song.

Did you cover Stylo (main Riffs) on your Ukulele? Share your work!
Submit a cover