Emily Uke tab by From Firts The Last

Ukulele Tab without chords.

Add tab to your SongBook
Tablature / ChordsFont size: A- A A+

Don't know how to read a tab or a chord ? Check out these uke lessons:

Detailed guide to strumming and picking
How to read uke tabs
Reading chord diagrams

A|-----------2--------------2-------------2---------------------------------|
E|-------3----------------------------5-------------------------------------|
C|---0-0---0--------4-4---4-------2-2---2-----------------------------------|
G|-------------0--------4-----0-------------0-------------------------------|



A-----------2-------------2----------------------------2--------------------|
E|------3-------------3------------2-------2-------3---------------3--------|
C|--0-0---0------4-4----4------2-2---2---2-----0-0---0----------------------|
G|------------0-------------0----------------------------0------4-*---------|


S S S
A|--------------------------------------------------------------------------|
E|----2-3----2-3----2-3------------3-------------------2-3---2-3---2-3------|
C----------2-----2------2-4-2---------2--------------------2-----2-----2-4--|
G|-----------------------------5-4------5-4-5-4-2-4-2-----------------------|


S S
A|--------------------------------------------------------------------------|
E|-----2-3-3-3-2-2-2-3-3-3-5--5--5--3-3-3-2-2-------------------------------|
C|-2------------------------------------------------------------------------|
G|--------------------------------------------------------------------------|



A|--------------------------------------------------------------------------|
E|---3-3----7--5-5----------------------------------------------------------|
C|---0-0--4-4--2-2----------------------------------------------------------|
G|-----0--4-0----0----------------------------------------------------------|



A|----------2----------------2-------------------2---------------------------|
E|------3---------3-----3-----------3-------3-----------2----2------2--------|
C|--0-0---0-----0-----0---0-------0-----4-4---4-------2----2----2------------|
G|------------0----------------0-------------------0--------------0----------|


H P
A|---------------------------------------------------------------------------|
E|---------------------------------------------------------------------------|
C|---2-----------------------------------------------------------------------|
G|-----5-4-5-4---------------------------------------------------------------|



A|--7--0---0--2--2---2-------2--2--2--7-0---0--------------------------------|
E|-----7-5-5--0--0---0-------0--0--0--7-7-5-5--3-3-3-3-3-3-------------------|
C|--4----2---7--7--7--7--7--7--7--7---4---2----0-0-0-0-0-0-------------------|
G|--4--0-0-0-70-70-7-07--7--70-70-70--0-0---0--0-0-----0-0-------------------|



A|--------------------------------------------------------------------------|
E|--3-3-3-3-2---------------------------------------------------------------|
C|--0-0-0-0-2---------------------------------------------------------------|
G|--0-0-0-0-0---------------------------------------------------------------|



A|-----------2--------------------------------------------------------------|
E|------3-------------------------------------------------------------------|
C|--0-0---0-----------------------------------------------------------------|
G|-------------0------------------------------------------------------------|

 

Tab comments (1)
You must be logged in to join the discussion
or Register

 

MoMarie avatar
I find it fabulous! The only thing I would change is that it should switch to Chord form when you hit the chorus, it would make it easier to read. Other than that, well done! =] I really needed this song. Also, it's From First To Last*
04 Jun 2011
About this song

No information about this song.