Star Spangled Banner Uke tab by Francis Scott Key

Ukulele Tab without chords.

PrintAdd tab to your SongBook
Tablature / ChordsFont size: A- A A+

Don't know how to read a tab or a chord ? Check out these uke lessons:

Detailed guide to strumming and picking
How to read uke tabs
Reading chord diagrams

The Star Spangled Banner                             


arranged by fingeruke52 http://fingeruke.blogspot.com/



Oh say can you see by the
H E E. S Q Q Q Q. E E E E. S
A||-----------------|-----------------|--3---------7---5---|
E||---------------0-|-------0---------|--0---------0-------|
C||-----------------|--0----0----2----|--0---------0-------|
G||-----------0-----|------------0----|--------------------|


dawn's early light What so proudly we
Q Q Q Q. E E E E E E Q. E E E E E E
--3----------------------|------------------------|--7-------5--3-----|
--0------------0----2----|------------1-----------|--0-------1--0--1--|
---------------0----0----|--2---------------------|--0-------2--------|
-------------------------|--0---------0--------0--|--0----------0-----|


hailed at the twilight's last
H E E E E Q Q Q
--2--------0-------2--|--3-----------------3---------|
-----------1----------|--0-----------------0---------|
----------------------|--------------------0---------|
--0-------------------|--0-----------------0----0----|


gleaming - Whose broad stripes and bright
Q Q E E. S Q Q Q
------------------------------------|-------------------------------|
--0-------------------------------0-|---------------------0---------|
-------------------------0----------|--0------------------0----2----|
------------------------------0-----|--------------------------0----|


stars throught the perilous
Q. E E E E. S Q Q Q
--3------------------------------7---5-|--3------------------|
--0------------------------------0-----|--0--------0----2----|
--0------------------------------0-----|-----------0----0----|
---------------------------------------|---------------------|


fight O'er the ramparts we watched were so
Q. E E E E E E Q. E E E E E E H E E E E
------------------------|--7--------5--3-----|--2--------0-------2--|
------------1-----------|--0--------1--0--1--|-----------1----------|
--2---------------------|--0--------2--------|----------------------|
--0---------0--------0--|--0-----------0-----|--0-------------------|


gallantly streaming - And the rockets red
Q Q Q Q Q E E. S Q Q Q
--3---------3---------|---------------------------7---7-|--7-------8----10----|
--0---------0---------|--0------------------------------|----------------0----|
------------0---------|----------------------0----0---0-|--0------------------|
--0---------0----0----|---------------------------0---0-|--0-------------0----|


glare the bombs bursting in air gave
Q. E E E E E E Q Q Q Q. E E Q
--10---------8---------7--|--5--------7----8----|--8---------8----|
---0----------------------|---------------------|--5---------5----|
-----------------------0--|-----------0---------|--0---------0----|
---0-------------------0--|--0--------0---------|-----------------|


proof through the night that our
Q. E E Q Q. E E E E E E
--7-----------------5--3----|--2---------0--------2--|
--------------------3--2----|------------1-----------|
--0-------------------------|--2---------------------|
--0-------------------------|--0---------------------|


flag was still there Oh say does that
Q Q Q Q. E E Q Q Q E E E E
--3------------------------|-----------------|--3---------------3----3--2--|
--0--------------0----2----|------------1----|--0---------------1----0-----|
-----------------0----0----|--2--------------|--0---------------2----------|
--0------------------------|--0---------0----|--0--------------------0-----|


Star - spangled banner yet wave O're the
Q Q Q Q E E E E E E E E Q Q E E E E
--0---------------0----0----|--5------8--7--5--3---|--3-----2------------------|
--1---------------1----0----|--1------5--0--2------|--0----------1-------------|
------------------0----1----|--2------0--0--2------|--0-----2------------------|
----------------------------|----------------------|--0-----0----0----------0--|


land of the free and the home of the
Q. E E E E E E Q. E E E E E E Q. E E Q
--3------5--7-------8--|--10---------3--------5--|--7--------------8--5----|
--0------2--0-------5--|---0---------5--------4--|--0-----------------1----|
---------2--0-------0--|-------------5-----------|--0-----------------2----|
--0------2--0----------|---0---------0-----------|--0--------------0-------|


brave
H. H.
--3------------|--L------------||
--0------------|--L------------||
--0------------|--L------------||
--0------------|--L------------||

 

Tab comments (0)
No comment yet :(
Need help, a tip to share, or simply want to talk about this song? Start the discussion!

You must be logged in to join the discussion
or Register

 

About this song

No information about this song.