Everlong Intro Riff Uke tab by Foo Fighters

0 Chords used in the song:

6.8/10
PrintAdd tab to your SongBook

Tablature / Chords (Full Song)

Font size: A- A A+

Artist: 
Album:  unknown
Key: unknownChords and Tablature
Intro (main riff throughout the song)

A-----4---4-4---4-----4---4-4-4--
E-----2---2-2---2-----2---2-2-2--
C-2-2---2-----2---2-2---2--------
G--------------------------------

A--------------------------------
E-----9---9-9---9------9---9-9-9-
C-----6---6-6---6------6---6-6-6-
G-4-4---4-----4---4-4----4-------

A-----12-------12-----------------------------------
E-----10-------10-------9-9-----9-------9-------9---
C-7-7----7-7-7----7-----6-6-----6-------6-------6---
G-------------------4-4-----4-4---4-4-4---4-4-4---4-

# The chord changes are a little tricky but with practice,
# you'll get it right! :)
# I've played along with the song, and it sounds pretty accurate.
# If you have any suggestions/questions just send me a message.

Uke tab by , 19 Sep 2011

Tab comments (1)

Something to say?
Share your strumming patterns, chords or tips to play this tab! ;)
Filter by:
Marcopolo22 avatar
flag for US(ISO2) (Boston)
How do I read off the notes correctly? I'm pretty new to this
29 Sep 2018
Comment

Top Tabs & Chords by Foo Fighters, don't miss these songs!

About this song: Everlong Intro Riff

No information about this song.

Did you cover Everlong Intro Riff on your Ukulele? Share your work!
Submit a cover