If I Ever Leave This World Alive Uke tab by Flogging Molly

4 Chords used in the song: D, G, A, Bm

Rate song!
PrintAdd tab to your SongBook

Tablature / Chords (Full Song)

Font size: A- A A+

Artist: 
Year:  2002
Difficulty: 
3.25
(Beginner)
Key: D, BmChords and Tablature
Intro: D D

D D
If I ever leave this world alive,
G G D D
I'll thank ya' for things you did in my life.

If I ever leave this world alive,
G G D D
I'll come back down and sit beside your feet tonight.
A A
Wherever I am, you'll always be.
Bm Bm G G
More than just a memory.
D D A A D D
If I ever leave this world alive.

D D
If I ever leave this world alive,
G G D D
I'll take on all the sadness, that I left behind.

If I ever leave this world alive,
G G D D
The madness that you feel will soon subside.
A A
So in a word, don't shed a tear.
Bm Bm G G
I'll be here when it all gets weird.
D D A A D D A A
If I ever leave this world alive.

D D G G D D
A|----------------------------------|
E|---------7------------------------|
C|---------------------------3------|
G|-0/7-------7---4-4-2-----0--------|

G G D D
A|---9------------------------------|
E|---------5-5/10-----7-7\5-----3-2-|
C|----------------------------------|
G|-0/7------------------------------|

A A
So when in doubt just call my name
A|-------------0--------------------|
E|-2---3---2--(0)-------------------|
C|------------(1)-------------------|
G|------------(2)-------------------|

Bm Bm G G
Just before you go insane
A|---------(2)----------------------|
E|-0-2-0---(2)----------------------|
C|-------2-(2)----------------------|
G|---------(4)----------------------|

D D A A
If I ever leave this world
Bm Bm G G
Hey, I may never leave this world
D D A A D D A A
But if I ever leave this world alive...she says
D D
I'm okay, I'm alright
Bm Bm G G
Though you have gone from my life
D D
You said that it would,
A A
Now everything should,
D D A A
Be alright
D D
She says, I'm okay!

I'm alright!
Bm Bm G G
Though you have gone from my life.
D D
You said that it would,
A A
Now everything should,
D D
Be alright.
A A D D
Yeah, should be alright.


Outro: D D

⇢ Not happy with this tab? View 2 other version(s)

Uke tab by , 18 Sep 2015

Tab comments (0)

No comment yet :(
Need help, a tip to share, or simply want to talk about this song? Start the discussion!

Something to say?
Share your strumming patterns, chords or tips to play this tab! ;)

Top Tabs & Chords by Flogging Molly, don't miss these songs!

About this song: If I Ever Leave This World Alive

No information about this song.

Did you cover If I Ever Leave This World Alive on your Ukulele? Share your work!
Submit a cover