Never Going Back Uke tab by Fleetwood Mac

Ukulele Tab without chords.

Add tab to your SongBook
Tablature / ChordsFont size: A- A A+

Don't know how to read a tab or a chord ? Check out these uke lessons:

Detailed guide to strumming and picking
How to read uke tabs
Reading chord diagrams

A|----3-------2-3-|--3-----3-----3-|----3-2-----5---|--3-----3-----3-|
E|----0-----3-----|------0-----0---|----3-----0-1---|------0-----0---|
C|0-------0-------|0---------------|0-------0---2---|0---------------|
G|----------------|----0-----0-----|----------------|----0-----0-----|

A|7-----7---------|7-----7---------|3-----5-7---5---|3-----10---------|
E|----------3-----|----------3-----|--3-0-----------|----0--------0-8-|
C|----5-------5---|----5-------5---|0-----5-7---5---|0--------7-------|
G|--7-----7-----7-|--7-----7-----7-|----------------|-----------0-----|

A|----15-------14---|15-----15-----15-15-|----15-------17---|
E|----12-------10---|12-----12-----12-12-|----12-------13---|
C|0--------0-0------|-----0------0-------|0--------0-0------|
G|------------------|--------------------|------------------|

A|15-----15-----15-15-|3---------------|
E|12-----12-----12-12-|0---------------|
C|-----0------0-------|0---------------|
G|--------------------|----------------|

 

Tab comments (1)
You must be logged in to join the discussion
or Register

 

omar0075 avatar
flag for MX(ISO2) (Hermosillo)
nice
27 Sep 2013
About this song

No information about this song.