Family Man Uke tab by Fleetwood Mac

1 Chords used in the song :

Add tab to your SongBook

View these chords for the Baritone

Transpose chords:
Tablature / ChordsFont size: A- A A+

Don't know how to read a tab or a chord ? Check out these uke lessons:

Detailed guide to strumming and picking
How to read uke tabs
Reading chord diagrams


------------------------------------------------------------------------------
------8--------9--------------------------------------------------------------
-----9-------11---------------------------------------------------------------
---10-------12----------------------------------------------------------------
--10-------12-----------------------------------------------------------------
------------------------------------------------------------------------------
Intro/Verse

------------------------------------------------------------------------------
---9----8-------8-----9-------------------------------------------------------
--11----9-------9----11-------------------------------------------------------
--12---10------10----12-------------------------------------------------------
--12---10------10----12-------------------------------------------------------
------------------------------------------------------------------------------
Chorus

--|--15---------------|-------------------------------------------------------
--|------15---17------|-------------------------------------------------------
--|---------------16--|--12---------------------------------------------------
--|-------------------|--12--12---14------------------------------------------
--|-------------------|--10--12---14------------------------------------------
--|-------------------|------10---12------------------------------------------
Bridge cont. (chords tonally implied)

------------------------------------------------------------------------------
--------10/12----7-7--7/8\7----------------7-7-8-10-8--7-8-7------------------
--9-9-9---------------------9-7--7/9------7------------------9-7-9---7--------
-----------------------------------------7-------------------------9----------
------------------------------------------------------------------------------
------------------------------------------------------------------------------
First/second solo

------------------------------------------------------------------------------
---------------------------------------10/12-12-12---12-10----12/15-12--10----
------------------------------------------------------------------------------
-9-7--7/9--7------------------------------------------------------------------
-------------10-9-7--9-7-5--7p5-----------------------------------------------
--------------------------------7-7-------------------------------------------


------------------------------------------------------------------------------
-12---------------------------------------------------------------------------
------------------------------------------------------------------------------
------------------------------------------------------------------------------
------------------------------------------------------------------------------
------------------------------------------------------------------------------


------------------------------------------------------------------------------
--------10/12--7-8--8/10------------7br---------------------------------------
--9-9-9-------------------9-7/9----------7-9----7-9--11br---7-9---------------
------------------------------------------------------------------------------
------------------------------------------------------------------------------
------------------------------------------------------------------------------
third solo

-|---------------------------------------|-12^---------10-12----10h12--10-----
-|---7-7-8-10-8--7-8-7-------------------|-------10/12------------------------
-|--7------------------9-7-9---9---------|------------------------------------
-|-7-------------------------9-----------|------------------------------------
-|-------------------------------9--7-7--|------------------------------------
-|---------------------------------------|------------------------------------
x2

----------------10-|-12p10-----12p10----12p10----12-12-|-----12--10-12-10-----
-12p10-12---/12----|-------12--------12-------12-------|--12------------------
-------------------|-----------------------------------|----------------------
-------------------|-----------------------------------|----------------------
-------------------|-----------------------------------|----------------------
-------------------|-----------------------------------|----------------------
x3

-12p10----10-------12-----12-12-12--12-14--14br---12p10-12-------10----12-----
-------12-----------------------------------------------------12----12----12--
------------------------------------------------------------------------------
------------------------------------------------------------------------------
------------------------------------------------------------------------------
------------------------------------------------------------------------------


-14----12----10----12--|-12p10---------|--------------------------------------
----12----12----12-----|---------12p10-|--------------------------------------
-----------------------|---------------|--------------------------------------
-----------------------|---------------|--------------------------------------
-----------------------|---------------|--------------------------------------
-----------------------|---------------|--------------------------------------
repeat and fade

 

Tab comments (0)
No comment yet :(
Need help, a tip to share, or simply want to talk about this song? Start the discussion!

You must be logged in to join the discussion
or Register

 

About this song

No information about this song.