Tell Me I'm A Wreck (Solo) Uke tab by Every Avenue

Ukulele Tab without chords.

Add tab to your SongBook
Tablature / ChordsFont size: A- A A+

Don't know how to read a tab or a chord ? Check out these uke lessons:

Detailed guide to strumming and picking
How to read uke tabs
Reading chord diagrams

A|---------------------------3-5--8-5--12-13-12----------------3-5-7-8--|
E|-----1---1~------1---1h3!~----------------------13----------1----------|
C|-0-2---2-----0-2---2------------------------------10~---0-2-----------|
G|-----------------------------------------------------------------------|

A|-15-15-15-12-12-12-12-12-15-15-15-10-10-10-10-10--|
E|-----------------------------------------------------|
C|-----------------------------------------------------|
G|-----------------------------------------------------|

A|-----------------------------------------------------6-6-6-6-------------|
E|----------------------------6-6-6-6-7-7-7-7-9-9-9-9--------------7--7~--|
C|---5-5-5-5-7-7-7-7-9-9-9-9-----------------------------------6-8--8-----|
G|-------------------------------------------------------------------------|
PM|------------------------------------------------------------|

 

Tab comments (1)
You must be logged in to join the discussion
or Register

 

Danceygirl avatar
flag for US(ISO2) (Dodgeville)
AH-MAZING BRO!
28 Jul 2012
About this song

No information about this song.