Harsh And Stubborn That River Bends Uke tab by Eric Enocksson

Ukulele Tab without chords.

Add tab to your SongBook
Tablature / ChordsFont size: A- A A+

Don't know how to read a tab or a chord ? Check out these uke lessons:

Detailed guide to strumming and picking
How to read uke tabs
Reading chord diagrams

# This is from ear so it may not be 100% accurate but it is a wonderful tune to play on the ukulele


# Listen to the song on soundcloud first to get an idea of how the tune goes


# Tab submitted by Eemeli



/ - slide-up
h - hammer-down

Intro
A|-5--2--1--4--4--2---------|x3
E|-2--2--2--2--3--3--2--2---|
C|-------------------2--1---|
G|--------------------------|

A|---5---2---1---4-----4---2---------------------|x4
E|-2---2---2---2---2/3---3---3---2---2---2---2---|
C|-----------------------------2---2---1---1-----|
G|-----------------------------------------------|

A|---5---2---1---4-----4---2-------------------------------------|x2
E|-2---2---2---2---2/3---3---3---2---2---2---2-2-2h3-2---2---2---|
C|-----------------------------2---2---1---1-----------1---1-----|
G|---------------------------------------------------------------|

A|---5---2---1-4-----4---2---------------------------------------------------|x1
E|-2---2---2-----2/3---3---3---2---2-2-2h3-2---2---2---2---2-2-2h3-2---2---2-|
C|---------------------------2---2-----------2---2---1---1-----------1---1---|
G|---------------------------------------------------------------------------|

# The next two lines are of the same part, the part was too long for a single line

A|---5---2---1---4-----4---2-----------------------------|
E|-2---2---2---2---2/3---3---3---2---2-2-2h3-2---2---2---|
C|-----------------------------2---2-----------2---2-----|
G|-------------------------------------------------------|

A|---------------------------|x4
E|---2---2-2-2h3-2---2---2---|
C|-1---1-----------1---1-----|
G|---------------------------|

 

Tab comments (0)
No comment yet :(
Need help, a tip to share, or simply want to talk about this song? Start the discussion!

You must be logged in to join the discussion
or Register

 

About this song

No information about this song.