Somebody That I Used To Know. (feat Kimbra) Uke tab by (empty)

Ukulele Tab without chords.

Rate song!
PrintAdd tab to your SongBook

Tablature / Chords (

Font size: A- A A+

Artist: 
Album:  unknown
Key: unknownTablature (no chords)
# ive included all the parts of the song. in the following order: chord andplucking,
# marimba like part, verse 1-3 electronic part with chorus, chorus pt.1 and 2,girls # part
A------------3-
E-----1------0-
C--2--2---0--0-
G-----2------0-


A--------------------------------------------------------------
E-----3-3-5-6-8-5-3-1-1-0-0-------------3-3-5-6-8-5-3-1-1-0-1-1
C-2-2-----------------------2-2-0---0-0------------------------
G--------------------------------------------------------------

A-----------------------
E-5-5-3-3-3-3-8-3-1---0-
C-------------------2---2
G------------------------


A----------------------
E-5-5-3-3-3-3-8-3-1-0-5
C----------------------
G----------------------


A------------------------------------
E-5-5-3-3-3-3-8-3-3-1-1-1-3-1-1-1-0--
C------------------------------------2
G-------------------------------------


A----------------------
E--5-8-5-3---0--5-8-3--
C-2--------2---2------2
G----------------------



A--------------------------------------------
E-------1-1-6-5-5-5--3-3-3-3-8-8-8-6-5-3-1-
C-2-2-2---------------------------------------
G--------------------------------------------


A--------------------------------------
E-------1-1-6-5-5-5-3-5-5-5-3-1--------1
C-2-2-2-------------------------2-2-2-0-
G---------------------------------------


A--------------------------------------
E-1-1-1-1-1-3-3(x3)-1-1-1-3-3-3-3-8-6-5
C--------------------------------------
G--------------------------------------


A------------
E-5-3-1-1-0-1
C------------
G------------

# The End! Rate, Comment, and ,please, feel free ro correct any errors. THANKS!

Uke tab by , 16 Jan 2012

Tab comments (0)

No comment yet :(
Need help, a tip to share, or simply want to talk about this song? Start the discussion!

Something to say?
Share your strumming patterns, chords or tips to play this tab! ;)

About this song: Somebody That I Used To Know. (feat Kimbra)

No information about this song.

Did you cover Somebody That I Used To Know. (feat Kimbra) on your Ukulele? Share your work!
Submit a cover