Sunny Road Uke tab by Emiliana Torrini

Ukulele Tab without chords.

Add tab to your SongBook
Tablature / ChordsFont size: A- A A+

Don't know how to read a tab or a chord ? Check out these uke lessons:

Detailed guide to strumming and picking
How to read uke tabs
Reading chord diagrams

Chased guitar pattern through the transposer, had not chance to check the result yet, but do let me know. Thanks to Dahaka at guitar tabs for writing it all out, now let's see if we can't get it on the uke too !?


Pattern I
|-0----------|----------------|-1--------0-|--4-------|
|----5--3----|-0----0---------|-1----3---0-|--0-------|
|------------|----------------|-2----0-----|-(-)------|
|----5--4----|-2--------------|------9---6-|----------|
~~~~~~ ~ ~~~~~~~~~~~~~~ H
|-0----------|--------------|-1--------0-|-------4-----------|
|----5--3----|-0---0--------|-1----3---0-|-----------------3-|
|------------|--------------|-2----0-----|---------------4---|
|----5--4----|-2---2--------|------9---6-|-------------------|
~~~~~~~~~~~~ ~ ~~~~
|-0----------|----------------|-1--------0-|--------|
|----5--3----|-0----0---------|-1----3---0-|--------|
|------------|----------------|-2----0-----|--------|
|----5--4----|-2--------------|------9---6-|--------|
~~~~~~~~~~~~ ~ ~~~~
|-0----------|----------------|-1--------0-|--0-----|
|----5--3----|-0----0---------|-1----3---0-|--------|
|------------|----------------|-2----0-----|--------|
|----5--4----|-2--------------|------9---6-|--------|



pattern II
|-0-3---3-|---3---3-|---3---3---|---2-3---3-2-|
|----00---|-3--00---|---0---0---|-0---0-0-----|
|---------|---------|-5---4---0-|---2---------|
|---0--0--|---0--0--|-----------|-------------|

Pattern III
|----2--3-----3---------3-----|
|-0--0--1-0---2---3-2-0-----0-|
|-0---------2-----------------|
|-0--1--2-----------------2---|


Intro (I)

Verse 1 (II) "Wrote you this..."
(III) "You know at night"
(II) "You said you'd meet"

Chorus (I) "It's time, meet me"

Verse 2 (II) "I never married"
(III) "I know that night"
(II) "Will you still meet me"

Chorus (I) "It's time, meet me"

Verse 3 (II) "Well this is it"
(III) "This time"
(II) "Now come and meet"

 

Tab comments (0)
No comment yet :(
Need help, a tip to share, or simply want to talk about this song? Start the discussion!

You must be logged in to join the discussion
or Register

 

About this song

No information about this song.