Lilium Uke tab by Elfen Lied

Ukulele Tab without chords.

9.4/10
PrintAdd tab to your SongBook

Tablature / Chords (Full Song)

Font size: A- A A+

Artist: 
Album:  unknown
Key: unknownTablature (no chords)
A|---------------------------------------------------------------------------|
E|-2---4-5--5-----2---4-5-----5--2---4--------2---------2----4-5-----5--4----|
C|-------------------------------------4-2-4----2---2-4----------------------|
G|---6--------------6------4----------------------6---------------4----------|


A|-------------------------------------------------------------------6-------|
E|-2---4-5--5-----2---4-5-----5--2----4----------2----------5--4-2-1---1-2---|
C|--------------------------------------4-2-4------2---2---------------------|
G|---6--------------6------4-------------------------6----4------------------|


A|-------------------------------------------------------------------------------------|
E|-6--------5--4---------5------5--4----------6--------5--4---------5------5--4-2-5--4-|
C|-----------------------------------4-2-----------------------------------------------|
G|---4-6-7-------7--6-9-----6-4----------6------4-6-7-------7--6-9-----6-4-------------|


A|---------------------------------------------------------------------------|
E|-2---4-5--5-----2---4-5-----5--2---4--------2---------2----4-5-----5--4----|
C|-------------------------------------4-2-4----2---2-4----------------------|
G|---6--------------6------4----------------------6---------------4----------|


A|-------------------------------------------------------------------6-------|
E|-2---4-5--5-----2---4-5-----5--2----4----------2----------5--4-2-1---1-2---|
C|--------------------------------------4-2-4------2---2---------------------|
G|---6--------------6------4-------------------------6----4------------------|


A|--------------------------------------------------------------------------------------------|
E|-5---------------5--4---5-------------------5------5-------------5--4-5--2-4-5--------------|
C|--------------------------------------------------------------------------------------------|
G|----4-6-4-7--6-4-----------4-6-9--4-6----------4-6----4-7--6-4-6----------------6-9--7--4-6-|


A|----------------------------------------------------------------------------|
E|-------------------5--4---2-5----------------------------------------------|
C|------------------------4--------------------------------------------------|
G|-11--9--7--6-7--4-6-------------4-6-9--7--4-6-------------------------------|


A|-------------------------------------------------------------------------------------|
E|-6--------5--4---------5------5--4----------6--------5--4---------5------5--4-2-5--4-|
C|-----------------------------------4-2-----------------------------------------------|
G|---4-6-7-------7--6-9-----6-4----------6------4-6-7-------7--6-9-----6-4-------------|


A|---------------------------------------------------------------------------|
E|-2---4-5--5-----2---4-5-----5--2---4--------2---------2----4-5-----5--4----|
C|-------------------------------------4-2-4----2---2-4----------------------|
G|---6--------------6------4----------------------6---------------4----------|


A|-------------------------------------------------------------------6-------|
E|-2---4-5--5-----2---4-5-----5--2----4----------2----------5--4-2-1---1-2---|
C|--------------------------------------4-2-4------2---2---------------------|
G|---6--------------6------4-------------------------6----4------------------|


A|--------------------------------------------------------------------------------------------|
E|-5---------------5--4---5-------------------5------5-------------5--4-5--2-4-5--------------|
C|--------------------------------------------------------------------------------------------|
G|----4-6-4-7--6-4-----------4-6-9--4-6----------4-6----4-7--6-4-6----------------6-9--7--4-6-|


A|----------------------------------------------------------------------------|
E|-------------------5--4---2-5----------------------------------------------|
C|------------------------4--------------------------------------------------|
G|-11--9--7--6-7--4-6-------------4-6-9--7--4-6-------------------------------|


A|-------------------------------------------------------------------6-------|
E|-2---4-5--5-----2---4-5-----5--2----4----------2----------5--4-2-1---1-2---|
C|--------------------------------------4-2-4------2---2---------------------|
G|---6--------------6------4-------------------------6----4------------------|


A|-------------------------------------------------------------------6-------|
E|-2---4-5--5-----2---4-5-----5--2----4----------2----------5--4-2-1---1-2---|
C|--------------------------------------4-2-4------2---2---------------------|
G|---6--------------6------4-------------------------6----4------------------|

Uke tab by , 17 May 2014

Tab comments (1)

Something to say?
Share your strumming patterns, chords or tips to play this tab! ;)
Filter by:
Lysuuug avatar
Was helpful
♡♡♡ •3•
21 Mar 2020
Comment

Top Tabs & Chords by Elfen Lied, don't miss these songs!

About this song: Lilium

No information about this song.

Did you cover Lilium on your Ukulele? Share your work!
Submit a cover