Morning Mood Uke tab by Edvard Grieg

Ukulele Tab without chords.

9/10
PrintAdd tab to your SongBook

Tablature / Chords (Full Song)

Font size: A- A A+

Artist: 
Year:  2017
Key: unknownTablature (no chords)
A|-3-0-------0-3-0-------0---0-3-0-3-5-0-5-3-0-----|
E|-0---3-1-3---0---3-1-3---3-------------------3-1-|
C|-0-----------0-----------------------------------|
G|-0-----------0-----------------------------------|



A|-7-4-2-0-2-4-7-4-2-0-2-4-2-4-7-4-7-9-4-9-7-4-2-0-|
E|-------------------------------------------------|
C|-------------------------------------------------|
G|-------------------------------------------------|

⇢ Not happy with this tab? View 1 other version(s)

Uke tab by , 10 Sep 2014

Tab comments (0)

No comment yet :(
Need help, a tip to share, or simply want to talk about this song? Start the discussion!

Something to say?
Share your strumming patterns, chords or tips to play this tab! ;)

Top Tabs & Chords by Edvard Grieg, don't miss these songs!

About this song: Morning Mood

No information about this song.

Did you cover Morning Mood on your Ukulele? Share your work!
Submit a cover