In The Hall Of The Mountain King Uke tab by Edvard Grieg

Ukulele Tab without chords.

7.6/10
PrintAdd tab to your SongBook

Tablature / Chords (Full Song)

Font size: A- A A+

Artist: 
Year:  1961
Key: unknownTablature (no chords)
A|-------0-2---2----1---1----0---0-------------0-2---2-7-5-2---2-5----------|
E|-0-2-3-----3--------2--------1---------0-2-3-----3---------3--------------|
C|--------------------------------------------------------------------------|
G|--------------------------------------------------------------------------|

A|-------0-2---2----1---1----0---0-------------0-2---2-2--------------------|
E|-0-2-3-----3--------2--------1---------0-2-3-----3-----0-3-2--------------|
D|--------------------------------------------------------------------------|
G|--------------------------------------------------------------------------|

A|----------------------------------------------------7-5-------5-----------|
E|-0-2-3-----3--------2-------1---------0-2-3-----3---------3---------------|
C|--------------------------------------------------------------------------|
G|-------2-4---4----3---3---2---2-------------2-4---4-----4---4-------------|

A|--------------------------------------------------------------------------|
E|-0-2-3-----3--------2-------1---------0-2-3-----3-------3-2---------------|
C|--------------------------------------------------------------------------|
G|-------2-4---4----3---3---2---2-------------2-4---4-4-2-------------------|

⇢ Not happy with this tab? View 1 other version(s)

Uke tab by , 04 Jul 2012

Tab comments (3)

Something to say?
Share your strumming patterns, chords or tips to play this tab! ;)
Filter by:
babbustaman avatar
Awesome. Thanks!
29 Sep 2019
Comment
LordHarry avatar
mobile flag for CA(ISO2) (Brossard)
the last number of the first line should be 7 instead of 5 personally
17 Jul 2017
Comment
Luxignis avatar
flag for US(ISO2) (orange park)
Love it. Fun to play, and the way the music reads can only be described as delicious. Something which is easily learned and impresses.
04 Jul 2012
Comment

Top Tabs & Chords by Edvard Grieg, don't miss these songs!

About this song: In The Hall Of The Mountain King

No information about this song.

Did you cover In The Hall Of The Mountain King on your Ukulele? Share your work!
Submit a cover