Blue Wagon | Goluboy Vagon | Голубой Вагон Uke tab by Eduard Uspensky

Ukulele Tab without chords.

Add tab to your SongBook
Tablature / ChordsFont size: A- A A+

Don't know how to read a tab or a chord ? Check out these uke lessons:

Detailed guide to strumming and picking
How to read uke tabs
Reading chord diagrams

# Chorus has a couple of changed notes to fit high g tuning

A|-------------------------------------------------| -
E|----5-4-5-7-5-3-5-3-----------3-2-3-5-3---1--0---| |
C|--4-----------------5--5----2-----------2--------| |
g|-------------------------------------------------| |
\ verse
/ куплет
A|-------------------------------------------------| |
E|----5-4-5-7-5-3--------5----0-8-7-5-4-5-7-4-5----| |
C|--4-------------5-4-2----------------------------| |
g|-------------------------------------------------| -


A|--0----0----------------------0----0-2-0------3-2-3-0--|
E|-----0---3-1----1-0----1-0-------4-------1--0----------| chorus
C|-------------2------0------2---------------------------| припев
g|-------------------------------------------------------| (x2)

Медленно минуты уплывают в даль,
Встречи с ними ты уже не жди.
И хотя нам прошлое немного жаль,
Лучшее, конечно, впереди.

Припев:
Скатертью, скатертью
Дальний путь стелется,
И упирается прямо в небосклон.
Каждому, каждому
В лучшее верится...
Катится, катится
Голубой вагон.

Может мы обидели кого-то зря,
Календарь закроет старый лист.
К новым приключениям спешим, друзья...
Эй, прибавь-ка ходу, машинист!

Припев.

Голубой вагон бежит, качается,
Скорый поезд набирает ход...
Ах, зачем же этот день кончается,
Пусть бы он тянулся целый год!

 

Tab comments (0)
No comment yet :(
Need help, a tip to share, or simply want to talk about this song? Start the discussion!

You must be logged in to join the discussion
or Register

 

About this song

No information about this song.