New Man Uke tab by Ed Sheeran

Ukulele Tab without chords.

7/10
PrintAdd tab to your SongBook

Tablature / Chords (

Font size: A- A A+

Artist: 
Album: 
Year:  2017
Key: unknownTablature (no chords)
A|-------2-2-------------|

E|---0---0-0---2-2---3-3-|

C|-------------2-2---2-2-|

G|---0---0-0---------0-0-|


A|-----------------------|

E|-0-0---------2-2---3-3-|

C|-0-0---2-2---2-2---2-2-|

G|-------------------0-0-|

⇢ Not happy with this tab? View 1 other version(s)

Uke tab by , 24 Aug 2017

Tab comments (0)

No comment yet :(
Need help, a tip to share, or simply want to talk about this song? Start the discussion!

Something to say?
Share your strumming patterns, chords or tips to play this tab! ;)

Top Tabs & Chords by Ed Sheeran, don't miss these songs!

About this song: New Man

No information about this song.

Did you cover New Man on your Ukulele? Share your work!
Submit a cover