What Sarah Said Uke tab by Death Cab For Cutie

1 Chords used in the song:

Add tab to your SongBook
Tablature / ChordsFont size: A- A A+

Don't know how to read a tab or a chord ? Check out these uke lessons:

Detailed guide to strumming and picking
How to read uke tabs
Reading chord diagrams

Intro

A|---7------5------3------3--2--3--2------|
E|--3--x4--3--x4--1--x4--0--0--0--0-------|
C|-5------4------2------0--0--0--0--------| x2
G|----------------------------------------|


A|---3------3------3------3---2---3---3---|
E|--3--x4--3--x4--1--x4--0---0---0---0----|
C|-5------4------2------0---0---0---0-----| x2
G|----------------------------------------|

# You can then strum those patterns for the rest of the song

 

Tab comments (1)
You must be logged in to join the discussion
or Register

 

Lunarlights avatar
Great tab!
13 Oct 2013
About this song

No information about this song.