Titanium (Intro) Uke tab by David Guetta Ft. Sia

Ukulele Tab without chords.

Add tab to your SongBook
Tablature / ChordsFont size: A- A A+

Don't know how to read a tab or a chord ? Check out these uke lessons:

Detailed guide to strumming and picking
How to read uke tabs
Reading chord diagrams

#heyya!! so this is my own interpretation of the song "titanium" by David Guetta ft. # Sia... Make sure to give me credits if u use this tab tnx..     -iya03 x

A|--------2-----4-----2-------------------|
E|-----0-----0-----0-----0----------------|
C|----------------------------------------|
G|--2-------------------------------------|



A|--------0-----2-----0-------------------|
E|-----0-----0-----0-----0----------------|
C|----------------------------------------|
G|--1-------------------------------------|



A|--------2-----4-----2-------------------|
E|-----0-----0-----0-----0----------------|
C|--6-------------------------------------|
G|----------------------------------------|



A|--------2-----4-----2-------------------|
E|-----0-----0-----0-----0----------------|
C|--6-------------------------------------|
G|----------------------------------------|

 

Tab comments (0)
No comment yet :(
Need help, a tip to share, or simply want to talk about this song? Start the discussion!

You must be logged in to join the discussion
or Register

 

About this song

"Titanium" is a song recorded by French disc jockey (DJ)-music producer David Guetta, featuring vocals by Australian recording artist Sia. Taken from the former's fifth studio album, Nothing but the Beat, the song was written by Sia Furler, Guetta, Giorgio Tuinfort and Afrojack. Production was also handled by Guetta, Tuinfort and Afrojack. "Titanium" was initially released for digital download on August 8, 2011, as the first of three promotional singles from the album. It was later released as the album's fourth single in December 2011.