Johnny Be Good Uke tab by Chuck Berry

Ukulele Tab without chords.

7.8/10
PrintAdd tab to your SongBook

Tablature / Chords (

Font size: A- A A+

Artist: 
Album:  unknown
Key: unknownTablature (no chords)
|--------|-/3-3-3-/3-3-3-/3-3-|-3---------------|
|----3-5-|-/3-3-3-/3-3-3-/3-3-|-3-6-5-3---------|
|-/4-----|--------------------|---------3-4-----|
|--------|--------------------|-------------5-5-|

|------------------|------------------|--------------|-3-----------|
|------------------|----3-5-3---------|----3----3----|-3----3----3-|
|-/4-4-4-4-4-4-4-4-|-/4-4-4-4\2p0-----|-5b---5b---5b-|---5b---5b---|
|-/5-5-5-5-5-5-5-5-|--------------2p0-|--------------|-------------|

|--------------|-3-----------|----3-------5-3-|---------------3---|
|----3----3----|-3----3----3-|------6-5-3-----|-6-5-3--------3--6-|
|-5b---5b---5b-|---5b---5b---|-5b-------------|-------5-3---4-----|
|--------------|-------------|----------------|-------------------|

|---------------------|-------------|
|-5-3----3----3-------|-------------|
|-----5b---5b---5--3h4|-0-----------|
|---------------------|-------------|

||---------|---------|---------|---------|
||.3-3-5-3-|-3-3-5-3-|-3-3-5-3-|-3-3-5-3-|
||.0-0-0-0-|-0-0-0-0-|-0-0-0-0-|-0-0-0-0-|
||---------|---------|---------|---------|

|---------|---------|---------|---------|
|-3-3-5-3-|-3-3-5-3-|-3-3-5-3-|-3-3-5-3-|
|-0-0-0-0-|-0-0-0-0-|-0-0-0-0-|-0-0-0-0-|
|---------|---------|---------|---------|

|-3-3-5-3-|-3-3-5-3-|-3-3-5-3-|-3-3-5-3-|
|-1-1-1-1-|-1-1-1-1-|-1-1-1-1-|-1-1-1-1-|
|---------|---------|---------|---------|
|---------|---------|---------|---------|

|---------|---------|---------|---------|
|-3-3-5-3-|-3-3-5-3-|-3-3-5-3-|-3-3-5-3-|
|-0-0-0-0-|-0-0-0-0-|-0-0-0-0-|-0-0-0-0-|
|---------|---------|---------|---------|

|-5-5-7-5-|-5-5-7-5-|-3-3-5-3-|-3-3-5-3-|
|-3-3-3-3-|-3-3-3-3-|-1-1-1-1-|-1-1-1-1-|
|---------|---------|---------|---------|
|---------|---------|---------|---------|

|---------|---------|---5-5-5-|-5-5-5-5-||
|-3-3-5-3-|-3-3-5-3-|---3-3-3-|-3-3-3-3.||
|-0-0-0-0-|-0-0-0-0-|---------|--------.||
|---------|---------|---------|---------||

/ = slide up
\ = slide down
b = bend up
h = hammer-on
p = pull-off

Uke tab by , 26 May 2010

Tab comments (0)

No comment yet :(
Need help, a tip to share, or simply want to talk about this song? Start the discussion!

Something to say?
Share your strumming patterns, chords or tips to play this tab! ;)

Top Tabs & Chords by Chuck Berry, don't miss these songs!

About this song: Johnny Be Good

No information about this song.

Did you cover Johnny Be Good on your Ukulele? Share your work!
Submit a cover