Twinkle Twinkle Little Star Uke tab by Children Songs

Ukulele Tab without chords.

7.6/10
PrintAdd tab to your SongBook

Tablature / Chords (Full Song)

Font size: A- A A+

Artist: 
Year:  2013
Difficulty: 
5
(Intermediate)
Key: unknownTablature (no chords)
A|---------------------------------------|
E|-------------1-1-00----------1-1-00----|
C|-00-----------------220-------------2--|
G|-----00--220------------00-------------|



A|--------------------------------------|
E|---1-1-00------------1-1-00-----------|
C|----------200---------------220-------|
G|-00------------00-220-----------------|

Uke tab by , 17 May 2022

Tab comments (0)

No comment yet :(
Need help, a tip to share, or simply want to talk about this song? Start the discussion!

Something to say?
Share your strumming patterns, chords or tips to play this tab! ;)

Top Tabs & Chords by Children Songs, don't miss these songs!

About this song: Twinkle Twinkle Little Star

No information about this song.

Did you cover Twinkle Twinkle Little Star on your Ukulele? Share your work!
Submit a cover