Carnival Of The Animals - The Aquarium Uke tab by Camille Saint‐Saëns

Ukulele Tab without chords.

PrintAdd tab to your SongBook
Tablature / ChordsFont size: A- A A+

Don't know how to read a tab or a chord ? Check out these uke lessons:

Detailed guide to strumming and picking
How to read uke tabs
Reading chord diagrams

~           ~           ~          ~               ~         ~         ~        ~            
A|--0------9------------5-----------5------------5-----|---------5----------8--------8---------8-----|
E|------5-----------5----------5-----------5-------|------5----------1-5---5--1-5---5---1-5-----|
C|-----4---4------5----5------4---4------5----5----|-----4---4---2--2--2-----2--2------2--2-----|
G|---------9---5-------5---5------5---5-------5----|--5------5----------------------------------|
~ ~ ~ ~ ~ ~ ~ ~
A|--0------9------------5-----------5------------5-----|---------5----------9--------9---------9-----|
E|------5-----------5----------5-----------5-------|------5----------2-5---5--2-5---5---2-5-----|
C|-----4---4------5----5------4---4------5----5----|-----4---4---2--2--2-----2--2------2--2-----|
G|---------9---5-------5---5------5---5-------5----|--5------5----------------------------------|
~ ~ ~ ~ ~ ~ ~ ~
A|--0------5------------5-----------5------------5-----|--------4----------4----------4----------------|
E|------5-----------5----------5------------4------|------3---------3---------3-----4----4-7----|
C|-----4---4------5----5------4---4------5----5----|--------X---------X---------X-------4--8----|
G|---------5---5-------5---5------5---5-------5----|--4--X--4---4--X--4---4--X--4----------9----|
~ ~ ~ ~ ~ ~ ~ ~
A|-------7-7-------7-7-------7-7-------------|------2----------2---------2--------------------|
E|--5------5---4-----4---5-----4-------2-5---|--------4----------4---------4------------------|
C|----------------2--2------2--2---6--2--6---|--4--2--4---4---2--4---4--2--4------------------|
G|-----5---5-----------------------------7---|--------7----------7---------7------------------|

A|--------------------------------------------|-----------------------------------|
E|-------6----5--------------4-----3--6---6---|---5---5------4---4-6-3---3--2-5-2-|
C|--------------------------------------------|-----6-----5------------4---3------|
G|--9-6----6-----5--8-5--7-4---4--------6-----|--5-------------4------------------|
~ ~ ~
A|------------7---7---6---6---5---5--|---4---4-----4-----4--0----5-------|
E|--4-1---1-----3---2-----------1----|-0--------------0-------------0----|
C|------2----------------------------|-----------------------------------|
G|----------6-----------5---4--------|-----3----3-----------4------------|
~ ~ ~ ~ ~ ~ ~ ~
A|--0------9------------5-----------5------------5-----|---------5----------8--------8---------8-----|
E|------5-----------5----------5-----------5-------|------5----------1-5---5--1-5---5---1-5-----|
C|-----4---4------5----5------4---4------5----5----|-----4---4---2--2--2-----2--2------2--2-----|
G|---------9---5-------5---5------5---5-------5----|--5------5----------------------------------|
~ ~ ~ ~ ~ ~ ~ ~
A|--0------9------------5-----------5------------5-----|---------5----------9--------9---------9-----|
E|------5-----------5----------5-----------5-------|------5----------2-5---5--2-5---5---2-5-----|
C|-----4---4------5----5------4---4------5----5----|-----4---4---2--2--2-----2--2------2--2-----|
G|---------9---5-------5---5------5---5-------5----|--5------5----------------------------------|
~ ~ ~ ~ ~ ~ ~ ~
A|--0------5------------5-----------5------------5-----|--------4----------4----------4----------------|
E|------5-----------5----------5------------4------|------3---------3---------3-----4----4-7----|
C|-----4---4------5----5------4---4------5----5----|--------X---------X---------X-------4--8----|
G|---------5---5-------5---5------5---5-------5----|--4--X--4---4--X--4---4--X--4----------9----|
~ ~ ~ ~ ~ ~ ~ ~
A|-------7-7-------7-7-------7-7-------------|------2----------2---------2--------------------|
E|--5------5---4-----4---5-----4-------2-5---|--------4----------4---------4------------------|
C|----------------2--2------2--2---6--2--6---|--4--2--4---4---2--4---4--2--4------------------|
G|-----5---5-----------------------------7---|--------7----------7---------7------------------|

A|--------------------------------------------|-----------------------------------|
E|-------6----5--------------4-----3--6---6---|---5---5------4---4-6-3---3--2-5-2-|
C|--------------------------------------------|-----6-----5------------4---3------|
G|--9-6----6-----5--8-5--7-4---4--------6-----|--5-------------4------------------|
~ ~ ~
A|------------7---7---6---6---5---5--|---5---5---5---5-0---4--------|
E|--4-1---1-----3---2-----------1----|-0-----------0----------0-----|
C|------2----------------------------|------------------------------|
G|----------6-----------5---4--------|-----3---3-------2------------|
~ ~ ~ ~ ~ ~ ~ ~
A|--------8-------8--------8-------8--|-----7-7---0-------5------------5-------------5-----|
E|------1-5--5--1-5------1-5--4--1----|--5----5--------5-----------5------------5-------|
C|--2--2--2----2--2---2-2--2----2--2--|--------------4----4-------4---4-------4----4----|
G|---------------------------------4--|----5--5-----------5----5------5---5--------5----|
~ ~ ~ ~ ~ ~ ~ ~
A|--------8-------8--------8-------8--|-----7-7-----------5------------5----0--------5-----|
E|------1-5--5--1-5---5--1-5--4--1----|--5----5--------5-----------5------------5-------|
C|--2--2--2----2--2-----2--2----2--2--|--------------4----4-------4---4-------4----4----|
G|---------------------------------4--|----5--5---5-------5----5------5------------5----|
H H H H H H H H H H H
A|----9---------------------------------------------------9----|
E|--°---------------3--5--------------3-5--------------------|
C|----7------------5--------------4-5--------------------4---|
G|--°9-----5-7--9--------4-5--7------------4--5-7--9---49----|
H H H H H H H H H H H ~ ~ ~ ~
A|----9---------------------------------------------------9----|--0-------9----0---------7----0------4--------2-2-|
E|--°---------------3--5--------------3-5--------------------|------5-------------5-----------4----------4---|
C|----7------------5--------------4-5--------------------4---|------4---4--------6----6-------3--3--4---2-42-|
G|--°9-----5-7--9--------4-5--7------------4--5-7--9---49----|--------69-------------7---------44---------4--|
H H H H H H H H H H H
A|----9---------------------------------------------------9----|
E|--°---------------3--5--------------3-5--------------------|
C|----7------------5--------------4-5--------------------4---|
G|--°9-----5-7--9--------4-5--7------------4--5-7--9---49----|
H H H H H H H H H H H ~ ~ ~ ~
A|----9---------------------------------------------------9----|--0-------9----0---------7----0------4--------2-2-|
E|--°---------------3--5--------------3-5--------------------|------5-------------5-----------4----------4---|
C|----7------------5--------------4-5--------------------4---|------4---4--------6----6-------3--3--4---2-42-|
G|--°9-----5-7--9--------4-5--7------------4--5-7--9---49----|--------69-------------7---------44---------4--|
~ ~
A|--0-------------------------------6-5--|--4---7-6-5-4-3-2-----2-1-------6-5--|
E|--------------------6-5-4-3-2-1-0-2-1--|--0---3-2-1-0-------------2-1-0------|
C|--4--7--6--5--4-3-2--------------------|--4-----------3-2-1-0-----9-8-7-6-5--|
G|--6--9--8--7--6-5-4-6-5-4-3-2-1-0------|------------------3-2-1-0------------|

A|--4--5-4-5-4-5-4-5-4----4----4----4----|--0--------4--------------------------------------||
E|-----6---6---6---6---4---4---4---4-|--0----0-----0-5---------5-----------5*------5----||
C|--4----4---4---4---4-10-4-10-4-10-4-10-|-----1-----------------4-----------4--------------||
G|-----------------------------------|--2------2--------6-9-------6--9--*----6----------||

 

Tab comments (0)
No comment yet :(
Need help, a tip to share, or simply want to talk about this song? Start the discussion!

You must be logged in to join the discussion
or Register

 

About this song

No information about this song.