Runaway Baby Uke tab by Bruno Mars

Ukulele Tab without chords.

Add tab to your SongBook
Tablature / ChordsFont size: A- A A+

Don't know how to read a tab or a chord ? Check out these uke lessons:

Detailed guide to strumming and picking
How to read uke tabs
Reading chord diagrams

A --------------------------------|
E ----------6-4--4----4-6-4-------|
C 3--3----3---------6-------6-3---|
G ------6-------------------------|

A ------------------------------------|
E ------------6--4--4-----4-6--4------|
C 3--------------------6---------6--3-|
G ---8---6-8--------------------------|

A -8---8---8---8---8---8---8---8---|-7---7---7---7---7---7---7---7---|
E -------------------------|-------------------------|
C -6--6--6--6--6--6--6--6--|-5--5--5--5--5--5--5--5--|
G -8--8--8--8--8--8--8--8--|-7--7--7--7--7--7--7--7--|

A -8---8---8---8---8---8---8---8---|-8-----8-----8--------------|
E -------------------------|-------------------------|
C -6--6--6--6--6--6--6--6--|-8----8----8-------------|
G -8--8--8--8--8--8--8--8--|-8----8----8-------------|

A -8---8---8---8---8---8---8---8---|-7---7---7---7---7---7---7---7---|
E -------------------------|-------------------------|
C -6--6--6--6--6--6--6--6--|-5--5--5--5--5--5--5--5--|
G -8--8--8--8--8--8--8--8--|-7--7--7--7--7--7--7--7--|

A -8---8---8---8---8---8---8---8---|-8-----8-----8--------------|
E -------------------------|-------------------------|
C -6--6--6--6--6--6--6--6--|-8----8----8-------------|
G -8--8--8--8--8--8--8--8--|-8----8----8-------------|

A -8---8---8---8---8---8---8---8---|-7---7---7---7---7---7---7---7---|
E -------------------------|-------------------------|
C -6--6--6--6--6--6--6--6--|-5--5--5--5--5--5--5--5--|
G -8--8--8--8--8--8--8--8--|-7--7--7--7--7--7--7--7--|

A -8---8---8---8---8---8---8---8---|-8-----8-----8--------------|
E -------------------------|-------------------------|
C -6--6--6--6--6--6--6--6--|-8----8----8-------------|
G -8--8--8--8--8--8--8--8--|-8----8----8-------------|

A -8------8------8------8------|-7------------------------|
E -------------------------|-------------------------|
C -6-----6-----6-----6-----|-5-----------------------|
G -8-----8-----8-----8-----|-7-----------------------|

A ---------------------------|---------------------------|
E -------------------------|-6--6--------------------|
C -------------------------|-------------------------|
G -4--4--8--8--11--11--8--8--|-------7--7--10--10--7--7--|

A -------------------------|-------------------------|
E -------------6--6--------|-4--4--------------------|
C -------6--6--------6--6--|-------------------------|
G -8--8--------------------|-------5--5--8--8--5--5--|

A -------------------------|-------------------------|----|
E -------------------------|--6--------------6-------|----|
C -------------------------|-----------------------2-|--3-|
G --4-----4-----4-----4----|--------------------6----|----|

 

Tab comments (1)
You must be logged in to join the discussion
or Register

 

blondie123 avatar
this sucked sorry
04 Jun 2019
About this song

No information about this song.