No Woman No Cry Uke tab by Bob Marley

Ukulele Tab without chords.

Add tab to your SongBook
Tablature / ChordsFont size: A- A A+

Don't know how to read a tab or a chord ? Check out these uke lessons:

Detailed guide to strumming and picking
How to read uke tabs
Reading chord diagrams

||----3--2-3-2-0------0-0---0-----7--8-7-5-3------3-2-3-5--|
||-0-----3-----0----0---1------0-----7-----0----0---3-5-7--|
||-0-----2-----0--0-----0-0----0-----7-----0--0------------|
||-0-----0-----2--------2------0-----7-----0---------------|

|----7-7-10-10-10--10-10-10-7-3----3----7-7-5-5-8-7-3-----|
|-0-------7---------8---------1---1--0------3-------0-----|
|-0-------7---------9---------0--0---0------5-------0-----|
|-0-------7---------0---------2------0--------------2-----|

|---3--3----3----7-7-10-10-10--10-10-10-7-3----3----7-7---|
|--0---1---1--0-------7---------8---------1---1--0--------|
|-0----0--0---0-------7---------9---------0--0---0--------|
|------2------0-------7---------0---------2------0--------|

|-5-8-2-5--3---3--3----3----3--2-3-2-0------0-0---0------7|
|-3-----0-----0---1---1--0-----3-----0----0---1------0----|
|-5-----0----0----0--0---0-----2-----0--0-----0-0----0----|
|-------2---------2------0-----0-----2--------2------0----|

|-8-7-5-3------3-2-3-5-----7-7-10-10-10--10-10-10-7-3----3|
|-7-----0----0---3-5-7--0-------7---------8---------1---1-|
|-7-----0--0------------0-------7---------9---------0--0--|
|-7-----0---------------0-------7---------0---------2-----|

|----7--8-7-5-3--||
|-0--------------||
|-0-----9-7-5-4--||
|-0--------------||

 

Tab comments (1)
You must be logged in to join the discussion
or Register

 

joss405 avatar
flag for FR(ISO2) (sucy en brie)
very good tab dude !
09 May 2011
About this song

No information about this song.