Is This Love (Intro) Uke tab by Bob Marley

Ukulele Tab without chords.

Add tab to your SongBook
Tablature / ChordsFont size: A- A A+

Don't know how to read a tab or a chord ? Check out these uke lessons:

Detailed guide to strumming and picking
How to read uke tabs
Reading chord diagrams

A|--------------------|--------4-----5-4----5-4---|   
E|----0-2-----2---0-2-|----2----------------------|
C|--1-----------1-----|--2------------------------|
G|--------2-----------|------2----2------2------2-|

A|--------------------|---------------------------|
E|----0-2-----2---0-2-|----2-----5-5-5-4-4-4-2----|
C|--1-----------1-----|--2------------------------|
G|--------2-----------|------2---6-6-6-4-4-4-2----|

 

Tab comments (1)
You must be logged in to join the discussion
or Register

 

giddyuke avatar
Gimme some chords
12 Dec 2015
About this song

No information about this song.