Knocking On Heaven's Door Uke tab by Bob Dylan

4 Chords used in the song: G,D,Am,C

Add tab to your SongBook
Tablature / ChordsFont size: A- A A+

Don't know how to read a tab or a chord ? Check out these uke lessons:

Detailed guide to strumming and picking
How to read uke tabs
Reading chord diagrams

Intro:
G G D D Am Am Am Am (x4)

Verse:
G G D D
|-2---2---2---2--0-------0-|
|-3--------------2----2----|
|-2--------------2---------|
|-0--------------2---------|

Am Am Am Am
|-----0--------------------|
|-2---0--------------------|
|-----0--------------------|
|-----2--------------------|

G G D D
|-2----2----2----0-------0-|
|-3--------------2----2----|
|-2--------------2---------|
|-0--------------2---------|

Am Am Am Am
|-----0--------------------|
|-2---0--------------------|
|-----0--------------------|
|-----2--------------------|

G G D D
|-2---2---2---2--0-------0-|
|-3--------------2----2----|
|-2--------------2---------|
|-0--------------2---------|

Am Am Am Am
|-----0--------------------|
|-2---0--------------------|
|-----0--------------------|
|-----2--------------------|

G G D D
|-2----2----2----0-------0-|
|-3--------------2----2----|
|-2--------------2---------|
|-0--------------2---------|

Am Am Am Am
|-----0--------------------|
|-2---0--------------------|
|-----0--------------------|
|-----2--------------------|

Chorus:
G G D D
|-2----2----2----0--0-0-0--|
|-3--------------2---------|
|-2--------------2---------|
|-0--------------2---------|

Am Am Am Am
|-0----0--------------------|
|---2--0--------------------|
|------0--------------------|
|------2--------------------|

G G D D
|-2----2----2----0--0-0-0--|
|-3--------------2---------|
|-2--------------2---------|
|-0--------------2---------|

C C C C
|-0----3--------------------|
|---2--0--------------------|
|------0--------------------|
|------0--------------------|

G G D D
|-2----2----2----0--0-0-0--|
|-3--------------2---------|
|-2--------------2---------|
|-0--------------2---------|

Am Am Am Am
|-0----0--------------------|
|---2--0--------------------|
|------0--------------------|
|------2--------------------|

G G D D
|-2----2----2----0--0-0-0--|
|-3--------------2---------|
|-2--------------2---------|
|-0--------------2---------|

C C C C
|-0----3--------------------|
|---2--0--------------------|
|------0--------------------|
|------0--------------------|

Verse:
G G D D
|-2---2---2---2--0-------0-|
|-3--------------2----2----|
|-2--------------2---------|
|-0--------------2---------|

Am Am Am Am
|-----0--------------------|
|-2---0--------------------|
|-----0--------------------|
|-----2--------------------|

G G D D
|-2----2----2----0-------0-|
|-3--------------2----2----|
|-2--------------2---------|
|-0--------------2---------|

Am Am Am Am
|-----0--------------------|
|-2---0--------------------|
|-----0--------------------|
|-----2--------------------|

G G D D
|-2--2--2--2--2--0-------0-|
|-3--------------2----2----|
|-2--------------2---------|
|-0--------------2---------|

Am Am Am Am
|-----0--------------------|
|--2--0--------------------|
|-----0--------------------|
|-----2--------------------|

G G D D
|-2----2----2----0-------0-|
|-3--------------2----2----|
|-2--------------2---------|
|-0--------------2---------|

Am Am Am Am
|-----0--------------------|
|-2---0--------------------|
|-----0--------------------|
|-----2--------------------|

Chorus:
G G D D
|-2----2----2----0--0-0-0--|
|-3--------------2---------|
|-2--------------2---------|
|-0--------------2---------|

Am Am Am Am
|-0----0--------------------|
|---2--0--------------------|
|------0--------------------|
|------2--------------------|

G G D D
|-2----2----2----0--0-0-0--|
|-3--------------2---------|
|-2--------------2---------|
|-0--------------2---------|

C C C C
|-0----3--------------------|
|---2--0--------------------|
|------0--------------------|
|------0--------------------|

G G D D
|-2----2----2----0--0-0-0--|
|-3--------------2---------|
|-2--------------2---------|
|-0--------------2---------|

Am Am Am Am
|-0----0--------------------|
|---2--0--------------------|
|------0--------------------|
|------2--------------------|

G G D D
|-2----2----2----0--0-0-0--|
|-3--------------2---------|
|-2--------------2---------|
|-0--------------2---------|

C C C C
|-0----3--------------------|
|---2--0--------------------|
|------0--------------------|
|------0--------------------|

Outro:
G G D D
|-2--2----------0---0------|
|-3-----3-------2------2---|
|-2--------2----2----------|
|-0-------------2----------|

Am Am Am Am
|------0--0--------0------0-|
|------0-----0-------0------|
|--2---0--------0-------0---|
|------2--------------------|

G G D D
|-2--2----------0---0------|
|-3-----3-------2------2---|
|-2--------2----2----------|
|-0-------------2----------|

Am Am Am Am
|------0--0--------0--------|
|------0-----0-------0------|
|--2---0--------0-------0---|
|------2--------------------|
Fade Out

Enjoy,

-B�eG_?u????d??

 

Tab comments (0)
No comment yet :(
Need help, a tip to share, or simply want to talk about this song? Start the discussion!

You must be logged in to join the discussion
or Register

 

About this song

No information about this song.