Your Power (Solo) Uke tab by Billie Eilish

Ukulele Tab without chords.

7.7/10
PrintAdd tab to your SongBook

Tablature / Chords (Solo)

Font size: A- A A+

Artist: 
Album: 
Year:  2021
Key: unknownTablature (no chords)
A|-8-7-0--1-0--3--------------------------|
E|---------------0------------------------|
C|----------------------------------------|
G|----------------------------------------|

A|-8-7-0--1-0-----------------------------|
E|------------3---------------------------|
C|----------------------------------------|
G|----------------------------------------|

A|-8-7-0--1-0--3--------------------------|
E|---------------0------------------------|
C|----------------------------------------|
G|----------------------------------------|

A|----------------------------------------|
E|-/5-5-5--3-3--1-0-----------------------|
C|----------------------------------------|
G|----------------------------------------|

⇢ Not happy with this tab? View 3 other version(s)

Uke tab by , 27 Jul 2021

Tab comments (0)

No comment yet :(
Need help, a tip to share, or simply want to talk about this song? Start the discussion!

Something to say?
Share your strumming patterns, chords or tips to play this tab! ;)

Top Tabs & Chords by Billie Eilish, don't miss these songs!

About this song: Your Power

No information about this song.

Did you cover Your Power on your Ukulele? Share your work!
Submit a cover