Un Nuevo Lugar Uke tab by Amaia Romero

2 Chords used in the song: Gbm, G

Add tab to your SongBook
Tablature / ChordsFont size: A- A A+

Don't know how to read a tab or a chord ? Check out these uke lessons:

Detailed guide to strumming and picking
How to read uke tabs
Reading chord diagrams

# los acordes no cambian en toda la canción, hay que hacer el punteo todo el rato.

Gbm Gbm

A|---0--0---0-------0--0------------------|
E|--------2--------------2----------------|
C|-1--------------1-----------------------|
G|----------------------------------------|


G G
A|---2--2---2-------2--2------------------|
E|--------3--------------3----------------|
C|-2--------------2-----------------------|
G|----------------------------------------|


Un nuevo lugar
Donde cuatro paredes
Que no sé donde están

Os veo mirar
A A través del cristal
Me da un poco de miedo

Sé que al final
Me dejo llevar
Y no debería

Y caigo rendida
Se cierra mi día
No doy para más

Con los brazos arriba
En plan despedida
Os digo
Adiós

 

Tab comments (0)
No comment yet :(
Need help, a tip to share, or simply want to talk about this song? Start the discussion!

You must be logged in to join the discussion
or Register

 

About this song

No information about this song.