Someone Like You Uke tab by Adele

Ukulele Tab without chords.

8.4/10
PrintAdd tab to your SongBook

Tablature / Chords (

Font size: A- A A+

Artist: 
Album: 
Year:  2011
Key: unknownTablature (no chords)
A|-------0--------------0---------
E|----2-----2--------2-----2------
C|-2--------------2---------------
G|--------------------------------

A|-------0-----------0------------
E|----2-----2-----2-----2---------
C|-2-----------2------------------
G|--------------------------------

A|------0---------0---------------
E|---2----2----2----2-------------
C|-1---------1--------------------
G|--------------------------------

A|------0---------0---------------
E|---2----2----2----2-------------
C|-1---------1--------------------
G|--------------------------------

A|------2----------2--------------
E|---2----2-----2----2------------
C|-2----------2-------------------
G|--------------------------------

A|------2---------2---------------
E|---2----2----2----2-------------
C|-2---------2--------------------
G|--------------------------------

A|------2---------2---------------
E|---3----3----3----3-------------
C|-2---------2--------------------
G|--------------------------------



A|------2---------2---------------
E|---3----3----3----3-------------
C|-2---------2--------------------
G|--------------------------------

⇢ Not happy with this tab? View 34 other version(s)

Uke tab by , 10 Sep 2019

Tab comments (0)

No comment yet :(
Need help, a tip to share, or simply want to talk about this song? Start the discussion!

Something to say?
Share your strumming patterns, chords or tips to play this tab! ;)

Top Tabs & Chords by Adele, don't miss these songs!

About this song: Someone Like You

"Someone Like You" is a song performed by English singer-songwriter Adele, released as the second single from her studio album, 21 (2011). The song was composed by Adele and Dan Wilson. Read more on Last.fm.

Did you cover Someone Like You on your Ukulele? Share your work!
Submit a cover