Guitarra Sigo Aqui Uke tab by 1-800 Kill Your Wife

5 Chords used in the song: G, Csus42, A7sus4, D, Em7

Add tab to your SongBook

View these chords for the Baritone

Transpose chords:
Chord diagrams:
Pin chords to top while scrolling
Tablature / ChordsFont size: A- A A+

Don't know how to read a tab or a chord ? Check out these uke lessons:

Detailed guide to strumming and picking
How to read uke tabs
Reading chord diagrams

apo: 2ndo traste 
Acordes para el arpegio: G G Csus2 Csus2 A7sus4 A7sus4 D D Em7 Em7
e|---3---|---3---|---3---|---2---|---3---|
B|---3---|---3---|---3---|---3---|---3---|
G|---0---|---0---|---2---|---2---|---0---|
D|---0---|---2---|---2---|---0---|---2---|
A|---2---|---3---|---0---|-------|---2---|
E|---3---|-------|-------|-------|---0---| *********************************** | PM Start Palm muting | PM* End Palm muting ***********************************
Intro: x2

G G Csus2 Csus2 G G Csus2 Csus2
e|-----------------------------|--------------------------------|
B|-------3---3-------3---3-|--------3---3-------3---3---|
G|-----0--0-------0---0---|------0---0-------0---0------|
D|---0-----------2---------|----0-----------2---------------|
A|--------------3-----------|--------------3-----------------|
E|-3-----------------------|--3-----------------------------|

Verso I:
G G Csus2 Csus2 ×3
e|-----------------------------|
B|--------3-----------3--------|
G|------0---0-------0---0----|
D|----0-------0---2-------0----|
A|--------------3--------------|
E|--3--------------------------|
Soy, la pregunta del millón, siempre la interrogación, no respondas,

A7sus4 A7sus4 Csus2 Csus2
e|-----------------------------|
B|--------3-----------3--------|
G|------2---2-------0---0------|
D|----2-------2---2-------0----|
A|--0-----------3--------------|
E|-----------------------------|
que si, por que si.

G G Csus2 Csus2 x3
e|-----------------------------|
B|--------3-----------3--------|
G|------0---0-------0---0------|
D|----0-------0---2-------0----|
A|--------------3--------------|
E|--3--------------------------|
¿Y que, que podrías tu decir? si yo no te voy a oir, no me entiendes,

Em7 Em7 D D Csus2 Csus2
e|-----------------------------|
B|------3------3---(3)---------|
G|----0------2-----(0)---------|
D|--2------0-------(2)---------|
A|------------------3----------|--(3)-(2)------|
E|-----------------------------|----------(3)--|
y nunca seré lo que esperas de mi

Intermedio:
G G Csus2 Csus2 G G Csus2 Csus2
e|--------------------------|--------------------------------|
B|--------3---3-------3---3-|--------3---3-------3---3-------|
G|------0---0-------0---0---|------0---0-------0---0---------|
D|----0-----------2---------|----0-----------2---------------|
A|--------------3-----------|--------------3-----------------|
E|--3-----------------------|--3-----------------------------|

Verso II:
G G Csus2 Csus2 x3
e|-----------------------------|
B|--------3-----------3--------|
G|------0---0-------0---0------|
D|----0-------0---2-------0----|
A|--------------3--------------|
E|--3--------------------------|
Jamás, ya me vas a conocer, niño y hombre puedo ser, no me uses,

A7sus4 A7sus4 Csus2 Csus2
e|-----------------------------|
B|--------3-----------3--------|
G|------2---2-------0---0------|
D|----2-------2---2-------0----|
A|--0-----------3--------------|
E|-----------------------------|
y apartes de ti.

G G Csus2 Csus2 x3
e|-----------------------------|
B|--------3-----------3--------|
G|------0---0-------0---0------|
D|----0-------0---2-------0----|
A|--------------3--------------|
E|--3--------------------------|
Y vi, como alguien aprendió, lo que nadie le enseñó, no me entienden,

Em7 Em7 D D Csus2 Csus2
e|--------------------|
B|--3------3------3---|
G|--0------2------0---|
D|--2------0------2---|
A|--2-------------3---|-(3)-(2)----(3)-(2)-----|
E|--------------------|---------(3)--------(3)-|
no estoy aquí.

G G Csus2 Csus2 G G
Y yo sólo quiero ser real

Csus2 Csus2 G G
Y sentir el mundo igual

Csus2 Csus2 Em7 Em7 Csus2 Csus2
Que Los otros seguir siempre así

G G Csus2 Csus2 G G
Por qué yo tendría que cambiar

Csus2 Csus2 G G
Nadie más lo va a intentar

 

Tab comments (0)
No comment yet :(
Need help, a tip to share, or simply want to talk about this song? Start the discussion!

You must be logged in to join the discussion
or Register

 

About this song

No information about this song.