Bulls On Parade (Intro) Tab por Rage Against The Machine

tablatura Ukulele sin acordes.

Añadir esta tab a su SongBook
Tablature / ChordsFont size: A- A A+

¿ No sabe cómo leer una tablatura o un acorde ?

curso de ukulele

a---5-----5---5-----5---5------ x8
E------------------------------
C-----2---------2---------2----
g------------------------------


a---5--5------5--5--------------- x8
E---5--5--x-x-5--5--x-x-x-x-x-x--
C---2--2--x-x-2--2--x-x-x-x-x-x--
g---2--2--x-x-2--2--x-x-x-x-x-x--

 

Comentarios (0)
Ningún comentario :(
¿Necesitas ayuda, un consejo para compartir o simplemente quieres hablar sobre esta canción? Comience la discusión

Debes iniciar sesión para unirte a la discusión
o Registrarse

 

Acerca de esta canción

No hay información por esta canción.