Bulls On Parade Tab por Rage Against The Machine

tablatura Ukulele sin acordes.

Añadir esta tab a su SongBook
Tablature / ChordsFont size: A- A A+

¿ No sabe cómo leer una tablatura o un acorde ?

curso de ukulele

I just spent half an hour tabbing this out, then Uke Tabs logged me out right when I tried to submit it =.=" so this is my second attempt.

Well, anyway I adapted this from some guitar tabs I found a while back and it sounds pretty good on a uke, especially fr not having any effects used on it, as the original song is full of distortion and wah.

Intro:

A|-8-----8--8-----8--8---|-8-----8--8-----8--8---|
E|-----------------------|-----------------------|
C|---5--------5--------5-|---5--------5--------5-|
G|-----------------------|-----------------------|

Repeat 4x

A|-8--8--x-x-8--8--x-x-x-x-x-x-|
E|-8--8--x-x-8--8--x-x-x-x-x-x-|
C|-5--5--x-x-5--5--x-x-x-x-x-x-|
G|-----------------------------|

Repeat 7x

A|-8--8--x-x-8--8--x-x-x-x-x-x-|
E|-8--8--x-x-8--8--x-x-x-x-x-x-|
C|-5--5--3-3-5--5--3-3-3-3-3-3-|
G|-----------------------------|


Verse:

A|-------1----4-1-----|---------------------|
E|-1--4-----------1-4-|-(4)--------4-1--1-2-|
C|--------------------|---------------------|
G|--------------------|---------------------|

Repeat 4x

Chorus:

A|-8-8-8---x-8-----8-8---x-8-|-8-8-8---x-8---8-8-8-8---8-|
E|-x-x-x---x-x-----x-x---x-x-|-x-x-x---x-x---x-x-x-x---x-|
C|-5-5-5---x-5---3-5-5---x-5-|-5-5-5---x-5---5-5-5-5-3-5-|
G|-5-------------------------|-5-------------------------|

Repeat 4x

Verse:

A|-------1----4-1-----|---------------------|
E|-1--4-----------1-4-|-(4)--------4-1--1-2-|
C|--------------------|---------------------|
G|--------------------|---------------------|

Repeat 4x

Chorus:

A|-8-8-8---x-8-----8-8---x-8-|-8-8-8---x-8---8-8-8-8---8-|
E|-x-x-x---x-x-----x-x---x-x-|-x-x-x---x-x---x-x-x-x---x-|
C|-5-5-5---x-5---3-5-5---x-5-|-5-5-5---x-5---5-5-5-5-3-5-|
G|-5-------------------------|-5-------------------------|

Repeat 4x


Bridge:

A|-6--6--x-x-6--6--x-x-x-x-x-x-|
E|-6--6--x-x-6--6--x-x-x-x-x-x-|
C|-3--3--x-x-3--3--x-x-x-x-x-x-|
G|-3--3--x-x-3--3--x-x-x-x-x-x-|

Repeat 4x

Solo:

(The solo is pretty impossible to play on a uke, so this is what the rhythm guitar plays during it)

A|-8--8--x-x-8--8--x-x-x-x-x-x-|
E|-8--8--x-x-8--8--x-x-x-x-x-x-|
C|-5--5--x-x-5--5--x-x-x-x-x-x-|
G|-----------------------------|

Repeat 12x

Outro:

A|-8-----8--8-----8--8---|-8-----8--8-----8--8---|
E|-----------------------|-----------------------|
C|---5--------5--------5-|---5--------5--------5-|
G|-----------------------|-----------------------|

Repeat 8x

And that's it!

Thanks for reading, enjoy!

 

Comentarios (4)
Debes iniciar sesión para unirte a la discusión
o Registrarse

 

hack3rcmv avatar
flag for US(ISO2) (Santa Rosa)
Thanks for all the feedback guys! :D
07 May 2011
JaxX avatar
flag for DE(ISO2) (Berlin)
Great job dude, Love it ! thanks for posting
14 Mar 2011
toeMAs avatar
This is a really cool take on Rage
04 Nov 2010
jewkulele avatar
flag for US(ISO2) (Falmouth)
you should do

---8--
----0--
02 Nov 2010
Acerca de esta canción

No hay información por esta canción.