Killing In The Name. Tab por Rage Against The Machine

tablatura Ukulele sin acordes.

Añadir esta tab a su SongBook
Tablature / ChordsFont size: A- A A+

¿ No sabe cómo leer una tablatura o un acorde ?

curso de ukulele

----------6--6--6--|----------------------|---------------------------------|
--0--0--0----------|-0--0--0--------------|-0--0--0-------------------------|
-------------------|----------------------|---------------------------------|
-------------------|---------6--7--11--12---|-----------6--7---12-b14-r12---|

-----3h5--x-x--8-9--5-----2h3p2--|
--0--------------------0--2h3p2--|
---------------------------------|
---------------------------------|

----3h5-x-x------3h5-x-x-------3h5-x-x-12-----0-2h3p2h3--|
--0------------0-------------0--------------0-0-2h3p2h3--|
------------------------------------------------4-5-4-5--|
-------------4------------3------------------------------|

--x-x---x--|--x-x-x-x-x-x-x-x-x-x-x-
--5-5---5--|--5-5---5-5-------------
--9-9---9--|--9-9-x-9-9-x-x-x-x-x-x-
-----------|------------------------

--5-5-x-x-5-x-5--3--5--3--|
--0-0-x-x-0-x-0--3--5-----|
--x-x-x-x-x-x-x--5--7-----|
--7-7-x-x-7-x-7-----------|
--0--0--0---13--13--13---

--0--0--0---13--13--13---
--2--2--2---15--15--15---
----------------------

 

Comentarios (0)
Ningún comentario :(
¿Necesitas ayuda, un consejo para compartir o simplemente quieres hablar sobre esta canción? Comience la discusión

Debes iniciar sesión para unirte a la discusión
o Registrarse

 

Acerca de esta canción

No hay información por esta canción.