Raining Blood (Intro) Tab por Slayer

tablatura Ukulele sin acordes.

Añadir esta tab a su SongBook
Tablature / ChordsFont size: A- A A+

¿ No sabe cómo leer una tablatura o un acorde ?

curso de ukulele

This is my favourite song. on uke is played in normal tuning( G G C C E E A A ).  this is the main  riff:

-----------9-10-9-----|----9-8----8-7----|
--------8-------------|-10-----9---------|
--0-0-0---------------|------------------|
----------------------|------------------|
and then:
-----------11-12-11---|----10-9---9-8----|
--0-0-0-10------------|-11------10-------|
----------------------|------------------|
----------------------|------------------|

this is the intro of the song.

 

Comentarios (4)
Debes iniciar sesión para unirte a la discusión
o Registrarse

 

UkuleleMetallist avatar
Акорды
18 May 2020
smashingpear avatar
thanks so much for this tab, really good
21 Oct 2018
Enes_Sabi avatar
please post the rest :)
27 Aug 2017
paintblfrk avatar
flag for US(ISO2) (Portland)
helll yesss! haha, metal and ukulele just mix. im working on ressurection boulevard at the moment by devil driver. good jab man!
04 Mar 2011
Acerca de esta canción

No hay información por esta canción.