Cowboys From Hell (Riff) Tab por Pantera

0 Acordes utilizados en la canción:

Añadir esta tab a su SongBook
Tablature / ChordsFont size: A- A A+

¿ No sabe cómo leer una tablatura o un acorde ?

curso de ukulele

hey there i relised that there was no!! pantera my fave band of all time so i decided to take the tome and convert from guitar over to ukulele

|------------------------------4~----||
|----------3---3---4---4---4h5-------||
|--3h6-3h6---6---6---6---6-----------||
|------------------------------------||

|------------------------------------||
|----------3---3---4p3---------------||
|--3h6-3h6---6---6-----6-3/0---------||
|------------------------------------||

/-slide up
\-slide down
h- hammer on
p-pull off

 

Comentarios (1)
Debes iniciar sesión para unirte a la discusión
o Registrarse

 

hellojocke avatar
this is VERY wrong. i am sorry
15 Mar 2011
Acerca de esta canción

No hay información por esta canción.