Yohohoho Tab por One Piece

tablatura Ukulele sin acordes.

Añadir esta tab a su SongBook
Tablature / ChordsFont size: A- A A+

¿ No sabe cómo leer una tablatura o un acorde ?

curso de ukulele

A|--10-9-8---7-----3----5-7---5--0----3-----5-6---7--------0----0--3|
E|--------------------------------------------------3---------3-----|
C|------------------------------------------------------------------|
G|------------------------------------------------------------------|

A|--5--6----5--6----5-3----3---1-0-------------5-0-------------0---2--0-----|
E|----------------------------------3-0-------------1---1-2--3----------3---|
C|---------------------------------------2-0--------------------------------|
G|--------------------------------------------------------------------------|

A|---5------7------8----0--9-0---10---------------0----------------------0--|
E|--2--2--3---3--4---4-------------------0-3-3-3-----3--0--3-----0-3-3-3---3|
C|--------------------------------------------------------------------------|
G|--------------------------------------------------------------------------|

A|--------------------------0-------------------------------0---------------|
E|--0-----------0-3-3-3--------3---0---3--------0-3-3-3--------3--0---------|
C|-----0--------------------------------------------------------------0-----|
G|--------------------------------------------------------------------------|

A|-----0-3---3-5-----6-5-3----6-5-3---5-3-0----------10---7--5---3-0---2-3--|
E|--3----------------------------------------3------------------------------|
C|--------------------------------------------------------------------------|
G|--------------------------------------------------------------------------|

A|--10----7--5-----3--0----3------0----3-----0----2--3---8---7---7--5---3--5|
E|----------------------------3----------3----------------------------------|
C|--------------------------------------------------------------------------|
G|--------------------------------------------------------------------------|

A|--10---7--5---3--0---2--3---10----7--5----3--0---3----0---3-----0---2-3--8|
E|----------------------------------------------------3-------3-------------|
C|--------------------------------------------------------------------------|
G|--------------------------------------------------------------------------|

A|--7----3--5----5--3---10----7--5----3--0----2--3----10---7--5---3--0---3--|
E|-------------------------------------------------------------------------3|
C|--------------------------------------------------------------------------|
G|--------------------------------------------------------------------------|

A|--0---3-----0---2--3---8---7---7--5---3--5---10---7--5---3--0---2--3---|
E|--------3--------------------------------------------------------------|
C|-----------------------------------------------------------------------|
G|-----------------------------------------------------------------------|

A|--10---7-5---3-0---3-----0---3----0---2-3---8---7---3-5---5-3---3--3--5--6|
E|---------------------3----------3-----------------------------------------|
C|--------------------------------------------------------------------------|
G|--------------------------------------------------------------------------|

 

Comentarios (0)
Ningún comentario :(
¿Necesitas ayuda, un consejo para compartir o simplemente quieres hablar sobre esta canción? Comience la discusión

Debes iniciar sesión para unirte a la discusión
o Registrarse

 

Acerca de esta canción

No hay información por esta canción.