Bink's Sake Tab por One Piece

tablatura Ukulele sin acordes.

Añadir esta tab a su SongBook
Tablature / ChordsFont size: A- A A+

¿ No sabe cómo leer una tablatura o un acorde ?

curso de ukulele

# Did this completely from memory so it might be a bit off at times.

A|-0h3-3-3---------5---3-0---5---0h3-3-3---------5---3-0-----|
E|---------------------------------------------------------1-|
C|-----------------------------------------------------------|
g|-----------------------------------------------------------|


# For this part you may want to listen to the song on youtube or something to get right.
# I don't have it notated exactly right cuz I didn't wanna put dotted notes or anything in.

A|-3-0-------------3-0---------------------------1-0-0-------|
E|-----3-1---0-1-------3-1---1-------1-------0-1-------3-1-3-|
C|---------2---------------2---0---2---0---2-----------------|
g|-----------------------------------------------------------|

a|-3-0-------------3-0---------------------------1-0-0-------|
E|-----3-1---0-1-------3-1---1-------1-------0-1-------3-3-1-|
C|---------2---------------2---0---2---0---2-----------------|
g|-----------------------------------------------------------|

 

Comentarios (4)
Debes iniciar sesión para unirte a la discusión
o Registrarse

 

Fabiansky avatar
flag for CL(ISO2) (mexico)
So cool, thanks !!
19 Apr 2018
Pandamonius avatar
flag for US(ISO2) (Chino)
Best rendition of the song I could find
06 May 2011
Jimmo avatar
perfect except i believe the start to be a 3 on the a instead of a 5
A--0h3-3-3---------5---3-0--- 3 ---0h3-3-3---------5---3-0---
E------------------------------------------------------------1
C-------------------------------------------------------------
g-------------------------------------------------------------
15 Apr 2011
 avatar
flag for (ISO2)
Very Accurate!
24 Dec 2010
Acerca de esta canción

No hay información por esta canción.