Bink's Sake Tab por One Piece

tablatura Ukulele sin acordes.

ImprimirAñadir esta tab a su SongBook
Tablature / ChordsFont size: A- A A+

¿ No sabe cómo leer una tablatura o un acorde ?

curso de ukulele

# Enjoy yohohohohohohohoho!

# by George P. Tet

# Intro:

A|----1-1-1--3-1---1--|----1-1-1--3-1------| (x2)
E|--------------------|--------------------|
C|--------------------|-----------------3--|
G|--0------------0----|--0------------0----|


# Verse:

A|--1-------------1----|-----------------------|
E|---------------------|-----------------------|
C|------5-3-0-3-5------|--5-3-0-3-10-0-3-10-0--|
G|----0-------------0--|-----------------------|


A|---------------------|
E|---------------------|
C|--3-5-3-------5-3-5--|
G|---------0-0---------|

# (I don't like C| -10- | too much, but I think this is the best way you can play "A#" in the verse.)


# Play "Verse" until end, then change the last tab like this:


A|---------------------|
E|---------------------|
C|--3-5-3-------5-3-3--|
G|---------0-0---------|

 

Comentarios (1)
Debes iniciar sesión para unirte a la discusión
o Registrarse

 

Jimmo avatar
I played this till the skin fell off my fingers! Although i dont have any skin! YOHOHOH SKULL JOKE!
02 Mar 2011
Acerca de esta canción

No hay información por esta canción.