Binks' Sake Tab por One Piece

tablatura Ukulele sin acordes.

Añadir esta tab a su SongBook
Tablature / ChordsFont size: A- A A+

¿ No sabe cómo leer una tablatura o un acorde ?

curso de ukulele

X - Pause

Intro
A|-0-3-3-3----5--3-|-0--3---|-0-3-3-3----5--3-|-0----|
E|-----------------|--------|-----------------|----1-|
C|-----------------|--------|-----------------|------|x2
G|-----------------|--------|-----------------|------|
|_|_| | |__| | | |_|_| | |__| | |

Verse
A|-3-X-0---------------|-3-X-0----------------|---------------------X-1-|-0-X-0---------|
E|-------3-X-1---X-0-1-|-------3-X-1---X-1----|---X-1---------X-0-1-----|-------3-X-1-3-|
C|-------------2-------|-------------2-----0--|-2-----0-X-0-2-----------|---------------|\
G|---------------------|----------------------|-------------------------|---------------| \
|_|_| |_|_| |_|_| | |_|_| |_|_| |_|_| | |_|_| |_|_| |_|_| |_|_| |_|_| |_|_| | x2
/
A|-3-X-0---------------|-3-X-0----------------|---------------------X-1-|-0-X-0---------|/
E|-------3-X-1---X-0-1-|-------3-X-1---X-1----|---X-1---------X-0-1-----|-------3-X-3-1-|
C|-------------2-------|-------------2-----0--|-2-----0-X-0-2-----------|---------------|
G|---------------------|----------------------|-------------------------|---------------|
|_|_| |_|_| |_|_| | |_|_| |_|_| |_|_| | |_|_| |_|_| |_|_| |_|_| |_|_| |_|_| |

Piano Solo
A|------|------|------|------|------|------|------|------|
E|------|------|------|------|------|------|------|------|
C|------|------|------|------|------|------|------|------|
G|------|------|------|------|------|------|------|------|

Verse
A|-3-X-0---------------|-3-X-0----------------|---------------------X-1-|-0-X-0---------|
E|-------3-X-1---X-0-1-|-------3-X-1---X-1----|---X-1---------X-0-1-----|-------3-X-1-3-|
C|-------------2-------|-------------2-----0--|-2-----0-X-0-2-----------|---------------|\
G|---------------------|----------------------|-------------------------|---------------| \
|_|_| |_|_| |_|_| | |_|_| |_|_| |_|_| | |_|_| |_|_| |_|_| |_|_| |_|_| |_|_| | x2
/
A|-3-X-0---------------|-3-X-0----------------|---------------------X-1-|-0-X-0---------|/
E|-------3-X-1---X-0-1-|-------3-X-1---X-1----|---X-1---------X-0-1-----|-------3-X-3-1-|
C|-------------2-------|-------------2-----0--|-2-----0-X-0-2-----------|---------------|
G|---------------------|----------------------|-------------------------|---------------|
|_|_| |_|_| |_|_| | |_|_| |_|_| |_|_| | |_|_| |_|_| |_|_| |_|_| |_|_| |_|_| |

Intro
A|-0-3-3-3----5--3-|-0--3---|-0-3-3-3----5--3-|-0----|
E|-----------------|--------|-----------------|----1-|
C|-----------------|--------|-----------------|------|x2
G|-----------------|--------|-----------------|------|
|_|_| | |__| | | |_|_| | |__| | |

Verse
A|-3-X-0---------------|-3-X-0----------------|---------------------X-1-|-0-X-0---------|
E|-------3-X-1---X-0-1-|-------3-X-1---X-1----|---X-1---------X-0-1-----|-------3-X-1-3-|
C|-------------2-------|-------------2-----0--|-2-----0-X-0-2-----------|---------------|\
G|---------------------|----------------------|-------------------------|---------------| \
|_|_| |_|_| |_|_| | |_|_| |_|_| |_|_| | |_|_| |_|_| |_|_| |_|_| |_|_| |_|_| | x2
/
A|-3-X-0---------------|-3-X-0----------------|---------------------X-1-|-0-X-0---------|/
E|-------3-X-1---X-0-1-|-------3-X-1---X-1----|---X-1---------X-0-1-----|-------3-X-3-1-|
C|-------------2-------|-------------2-----0--|-2-----0-X-0-2-----------|---------------|
G|---------------------|----------------------|-------------------------|---------------|
|_|_| |_|_| |_|_| | |_|_| |_|_| |_|_| | |_|_| |_|_| |_|_| |_|_| |_|_| |_|_| |

Intro
A|-0-3-3-3----5--3-|-0--3---|-0-3-3-3----5--3-|-0----|
E|-----------------|--------|-----------------|----1-|
C|-----------------|--------|-----------------|------|x2
G|-----------------|--------|-----------------|------|
|_|_| | |__| | | |_|_| | |__| | |

 

Comentarios (2)
Debes iniciar sesión para unirte a la discusión
o Registrarse

 

Nauy13 avatar
flag for PH(ISO2) (Manila)
its stop, i think... just listen to the music and follow the ryhthm of it
29 Jan 2021
zxunion avatar
may i ask what's the x for? im new in reading tabs so i dont get it
04 Jun 2020
Acerca de esta canción

No hay información por esta canción.