We Three Kings Tab por Misc Christmas

tablatura Ukulele sin acordes.

Añadir esta tab a su SongBook
Tablature / ChordsFont size: A- A A+

¿ No sabe cómo leer una tablatura o un acorde ?

curso de ukulele

A|--2--0----------------------------------------|
E|-------------0--2------2--0-------------------|
C|----------------------------------------------|
G|--0-----0----------0--------------------------| X2



A|--------0--0--2--2--5--3--2--0--2--0----------|
E|--0-----2--------------------------------2--0-|
C|----------------------------------------------|
G|--0--0--------------------------------0-------|



A|-----0----------------------------------------|
E|--2--------------------0----------------------|
C|--------2-----2--2----------------------------|
G|--------0--0--0-----0-----0-------------------|



A|----------------------------------------------|
E|-----------------0----------------------------|
C|-----------2----------------------------------|
G|--0--0--0-----0-----0-------------------------|




A|--------0--2--3--2--0--2----------------------|
E|-----------------------------------------0----|
C|--2-----------------------2--------2----------|
G|--0--0--------------------0--0--0-----0-----0-|

This is my first tab. Hope it works for you! Happy Holidays!

 

Comentarios (3)
Debes iniciar sesión para unirte a la discusión
o Registrarse

 

lightiningeyes avatar
flag for US(ISO2) (Brownsville)
Very cool.
01 Nov 2019
kelsim avatar
Thanks. That was beautiful!
12 Dec 2017
 avatar
flag for (ISO2)
Good.
Still few mistakes.
13 Dec 2014
Acerca de esta canción

No hay información por esta canción.