Hark! The Herald Angels Sing Tab por Misc Christmas

tablatura Ukulele sin acordes.

Añadir esta tab a su SongBook
Tablature / ChordsFont size: A- A A+

¿ No sabe cómo leer una tablatura o un acorde ?

curso de ukulele

A|-----------2-2---5-5-5-3-2-0-2---|
E|-------2-------------------------|
C|-2-------------------------------|
G|---0-0---0-----2-----------------|

A|---------2-2---5-----------------|
E|------2--------------2-2-0-------|
C|-2-------------------------2-----|
G|--0-0---0----2---2-2-------------|

A|-5-5-5---3-2-2---5-5-5--3-2-2----|
E|---------------------------------|
C|---------------------------------|
G|-------0-------2------0------2---|

A|------5-3-2-3----2-3-5------2----|
E|-0-0-0---------------------------|
C|---------------------------------|
G|----------------2-----0-0-2------|

A|------5-3-2-3----2-3-5-----------|
E|-0-0-0---------------------------|
C|---------------------------------|
G|----------------2-----0-0-2-0----|

 

Comentarios (0)
Ningún comentario :(
¿Necesitas ayuda, un consejo para compartir o simplemente quieres hablar sobre esta canción? Comience la discusión

Debes iniciar sesión para unirte a la discusión
o Registrarse

 

Acerca de esta canción

No hay información por esta canción.