God Rest Ye Merry Gentlemen Tab por Misc Christmas

tablatura Ukulele sin acordes.

Añadir esta tab a su SongBook
Tablature / ChordsFont size: A- A A+

¿ No sabe cómo leer una tablatura o un acorde ?

curso de ukulele

A|------0--0-----------------------0--|
E|----------3--1--0--------0--1--3----|
C|-2--2------------2--0--2------------|
G|------------------------------------| 2x

A|-0--1---0--1--3---5---0-----------------------|
E|------3--------------------3---1-----0--1--3--|
C|---------------------------------2------------|
G|----------------------------------------------|

A|-------0--1p-0-0---------------------------0-1-3-5-0-----------------|
E|---1-3-----------3--1p0---1p0----3--1--3-------------3--1p0----------|
C|------------------------2-----2-----------------------------2--------|
G|---------------------------------------------------------------------|

 

Comentarios (5)
Debes iniciar sesión para unirte a la discusión
o Registrarse

 

CmpltlyUklld avatar
To UkeKittyKat it's 'pull-off' whey you place a finger on an indicated fret and then pull it off so you get legato sound.
08 May 2018
UkeKittyKat avatar
flag for US(ISO2) (Lebanon)
Can anyone explain to me what the "p" in a ukulele tab means?
01 Apr 2018
UkRks avatar
Thank you. Love this song.
09 Feb 2018
BandGeek06 avatar
HOW ON EARTH CAN YOU READ THAT?!
19 Dec 2017
ukematt avatar
flag for US(ISO2) (San Jose)
Classic Christmas song. Brings back memories. Great job!
03 Dec 2010
Acerca de esta canción

No hay información por esta canción.