Dearly Beloved Tab por Kingdom Hearts

0 Acordes utilizados en la canción:

¡Califica la canción!
ImprimirAñadir esta tab a su SongBook

Tablature / Chords (Canción entera)

Font size: A- A A+

Artista: 
Album:  desconocido
Key: desconocidoAcordes y tablaturas
My first tab, most of the single notes are supposed played twice and with the whole chord but this is basic melody. I hope you enjoy!

tuning is supposed to be low G G but if you don't have strings for it, it sounds just fine on normal tuning.

A|-3-3-----5---3-3------5--6--5-10-8--6-5--3--3----------|
E|-3---3-------1---3--1----3--3--3--3-3--3--8--6-------|
C|-3-----5-----2-----------3--3--3--3-3--3--3--3-----|
G|-1-----------3-----------3--3--3--3-3--3--3--3----|

A|-6--5--10-8--6--5--5-5---------------------------|
E|-6--6---6-6--6--6--8--6-------------------------|
C|-7--7---7-7--7--7--7--7-------------------------|
G|-5--5---5-5--5--5--5--5-------------------------|

then repeat, for the last chord I use my middle finger to bar the 6th fret bottom 2 strings.
There are some crazy stretches and really annoying finger positioning but its a lovely tune to play!

⇢ ¿No estás contento con esta tab? Ver 3 otra(s) versión(es)

Tab por , 08 oct 2014

Comentarios (1)

Comentar
¡Comparte tus patrones de rasgueo, acordes o consejos para tocar este tab!
Filtrar por:
janehartsell343 avatar
You have a captivating energy. Let's explore it further, shall we? Perhaps we can find some hidden treasures along the way, the kind that leave us wanting more tomorrow. f1nd me on janehartsell_mooo_com change _ to dot
11 Jul 2024
Comentario

Top Tabs & Acordes de Kingdom Hearts, ¡no te pierdas estas canciones!

Acerca de esta canción: Dearly Beloved

No hay información por esta canción.

¿Has versionado a Dearly Beloved con tu Ukelele? Comparte tu trabajo!
Submit a cover