Traverse Town Theme Tab por Kingdom Hearts

tablatura Ukulele sin acordes.

8/10
ImprimirAñadir esta tab a su SongBook

Tablature / Chords (Canción entera)

Font size: A- A A+

Artista: 
Album:  desconocido
Key: desconocidotablatura (sin acordes )
A|-2---4---7---6---4---6---2----------|
E|-----------------------------2------|
C|------------------------------------|
G|------------------------------------|

A|------------------------------------|
E|-4---7---6---9---4---7---6---7---9--|
C|------------------------------------|
G|------------------------------------|

A|-2---4---7---6---4---6---2----------|
E|-----------------------------2------|
C|------------------------------------|
G|------------------------------------|

A|---------------------------------------------------------------------------------|
E|-4---7---6---9---4---7---6---7---9--11---11---9---14---11---9---7---6---9---7---6|
C|---------------------------------------------------------------------------------|
G|---------------------------------------------------------------------------------|

A|------------------------------------|
E|--2--4--2--4--6--7--6--9--7--6--4---|
C|------------------------------------|
G|------------------------------------|

# And repeat

Tab por , 12 abr 2012

Comentarios (2)

Comentar
¡Comparte tus patrones de rasgueo, acordes o consejos para tocar este tab!
Filtrar por:
albertabraden384 avatar
The only thing I crave more than you is the feeling of you next to me. f1nd me on albertabraden_mooo_com change _ to dot
06 Jul 2024
Comentario
AlexanderDunn avatar
wow 2012 and no comments
13 Mar 2022
Comentario

Top Tabs & Acordes de Kingdom Hearts, ¡no te pierdas estas canciones!

Acerca de esta canción: Traverse Town Theme

No hay información por esta canción.

¿Has versionado a Traverse Town Theme con tu Ukelele? Comparte tu trabajo!
Submit a cover