Roxas Theme Tab por Kingdom Hearts

tablatura Ukulele sin acordes.

¡Califica la canción!
ImprimirAñadir esta tab a su SongBook

Tablature / Chords (Canción entera)

Font size: A- A A+

Artista: 
Album:  desconocido
Key: desconocidotablatura (sin acordes )
a|---7--------7--------7------------------------------|
E|---------------------------2--------2--------2------|
d|----------------------------------------------------|
g|------4--2-----4--2-----4-----4--2-----4--2-----4---|

a|-------2------------5-3-5--------3-5--5-------|
E|---3-----3--2-----0------------------0----3---|
d|----------------------------------------------|
g|----------------------------0-----------------|

a|---3--2--3--5------------|
E|---------------0----2----|
d|-------------------------|
g|-------------------------|

a|-------2------------5-3-5--------3-5--5-------|
E|---3-----3--2-----0------------------0----3---|
d|----------------------------------------------|
g|----------------------------0-----------------|

a|---3--2--3--5------------|
E|---------------0----2----|
d|-------------------------|
g|-------------------------|

a|----------------------5---2-------|
E|---3-5---3-5--3-2-0---------------|
d|----------------------------------|
g|-------4----------------------0---|

Tab por , 22 dic 2013

Comentarios (0)

Ningún comentario :(
¿Necesitas ayuda, un consejo para compartir o simplemente quieres hablar sobre esta canción? Comience la discusión

Comentar
¡Comparte tus patrones de rasgueo, acordes o consejos para tocar este tab!

Top Tabs & Acordes de Kingdom Hearts, ¡no te pierdas estas canciones!

Acerca de esta canción: Roxas Theme

No hay información por esta canción.

¿Has versionado a Roxas Theme con tu Ukelele? Comparte tu trabajo!
Submit a cover