You're Gonna Go Far, Kid Tab por The Offspring

5 Acordes utilizados en la canción: Am, F, C, G, Cmaj7

Añadir esta tab a su SongBook
Tablature / ChordsFont size: A- A A+

¿ No sabe cómo leer una tablatura o un acorde ?

curso de ukulele

Am Am
Show me how to lie
F F
You're getting better all the time
C C
And turning all against the one
G G
Is an art that's hard to teach
Am Am
Another clever word
F F
Sets off an unsuspecting herd
C C
And as you step back in the line
G G
A A mob jumps to their feet

Am Am
Now dance, fucker, dance
F F
Man, he never had a chance
C C
And no one even knew
G G
It was really only you

|0-8-----7---0---|
|----------------|
|----------------|
F |----------------|
And now you steal away
|0-8-----7---0---|
|----------------|
|----------------|
Dm |----------------|
Take him out today
|3-8-----7---3---|
|----------------|
|----------------|
F |----------------|
Nice work you did
|----------------|
|----------------|
|----------------|
G |0---0---0-------|
You're gonna go far, kid

Am Am
With a thousand lies
F F
And a good disguise
C C
Hit 'em right between the eyes
G G
Hit 'em right between the eyes
Am Am
When you walk away
F F
Nothing more to say
C C
See the lightning in your eyes
G G Am Am
See 'em running for their lives

|--------3-0-|
|0---0-------|
|-4---4------|
|--0---0-----|

Am Am
Slowly out of line
F F
And drifting closer in your sights
C C
So play it out I'm wide awake
G G
It's a scene about me
Am Am
There's something in your way
F F
And now someone is gonna pay
C C
And if you can't get what you want
G G
Well it's all because of me

Am Am
Now dance, fucker, dance
F F
Man, I never had a chance
C C
And no one even knew
G G
It was really only you

|0-8-----7---0---|
|----------------|
|----------------|
F |----------------|
And now you'll lead the way
|0-8-----7---0---|
|----------------|
|----------------|
Dm |----------------|
Show the light of day
|3-8-----7---3---|
|----------------|
|----------------|
F |----------------|
Nice work you did
G G
You're gonna go far, kid
|----3---2---0---|
|----------------|
|----------------|
|----------------|
Trust, deceived!

Am Am
With a thousand lies
F F
And a good disguise
C C
Hit 'em right between the eyes
G G
Hit 'em right between the eyes
Am Am
When you walk away
F F
Nothing more to say
C C
See the lightning in your eyes
G G Am Am Cmaj7 Cmaj7 C C
See 'em running for their lives

Solo:
|------0---------------0---3---2-----------2---------------------|
|--1-------0-------0---------------------------0-----------------|
|----------------------------------------------------2-2-----0-0-|
|0---0---0---0---0---0---0-------------0-------------------------|

|--------------3-------------3---7---------------11------14--14--|
|----0-----------------------------------------------------------|
|----------------------------------------------------------------|
|----------0-----------0-----------------------------------------|

Am Am
Now dance, fucker, dance
F F
He never had a chance
C C
And no one even knew
G G
It was really only you
Am Am
So dance, fucker, dance
F F
I never had a chance
C C G G
It was really only you

Am Am
With a thousand lies
F F
And a good disguise
C C
Hit 'em right between the eyes
G G
Hit 'em right between the eyes
Am Am
When you walk away
F F
Nothing more to say
C C
See the lightning in your eyes
G G
See 'em running for their lives

Am Am
Clever alibis
F F
Lord of the flies
C C
Hit 'em right between the eyes
G G
Hit 'em right between the eyes
Am Am
When you walk away
F F
Nothing more to say
C C
See the lightning in your eyes
G G Am Am
See 'em running for their lives

AmAm
|--------3-0-0-0-----|
|0---0-------0-0-----|
|-4---4------0-0-----|
|--0---0-----2-2-----|

 

Comentarios (0)
Ningún comentario :(
¿Necesitas ayuda, un consejo para compartir o simplemente quieres hablar sobre esta canción? Comience la discusión

Debes iniciar sesión para unirte a la discusión
o Registrarse

 

Acerca de esta canción

Despu