Concerning Hobbits - Lord Of The Rings (Riff) Tab por Howard Shore

tablatura Ukulele sin acordes.

Añadir esta tab a su SongBook
Tablature / ChordsFont size: A- A A+

¿ No sabe cómo leer una tablatura o un acorde ?

curso de ukulele

A|---------------------------------------------------------------------------|
E|---3--5---------------------5----3---------------------------------------|
C|-------------------------------------------------------------------------|
G|----------4-----7-----4----------------------4---7-------9----12---11--7---|

A|-------------------------------------------------------------------------|
E|-----------------5-------3--5---------------------5----3-----------------|
C|-------------------------------------------------------------------------|
G|---4---5--4--------------------4-----7-----4-----------------------------|

A|-------------------------------------------------------------------------|
E|-------------------------------------------------------------------------|
C|-------------------------------------------------------------------------|
G|---4---7----9-----7---4-----4--2------------------------------------|

 

Comentarios (0)
Ningún comentario :(
¿Necesitas ayuda, un consejo para compartir o simplemente quieres hablar sobre esta canción? Comience la discusión

Debes iniciar sesión para unirte a la discusión
o Registrarse

 

Acerca de esta canción

No hay información por esta canción.