Game Of Thrones Theme Tab por Ramin Djawadi

tablatura Ukulele sin acordes.

8.9/10
ImprimirAñadir esta tab a su SongBook

Tablature / Chords (Canción entera)

Font size: A- A A+

Artista: 
Año:  2015
Key: desconocidotablatura (sin acordes )
A|--10---------6--8--10------6--8----5----|
E|--------8---------------8---------------|
C|----------------------------------------|
G|----------------------------------------|

A|--8----------5--6--8-------6--5---------|
E|--------6---------------6----------8----|
C|----------------------------------------|
G|----------------------------------------|

⇢ ¿No estás contento con esta tab? Ver 2 otra(s) versión(es)

Tab por , 30 ago 2012

Comentarios (2)

Comentar
¡Comparte tus patrones de rasgueo, acordes o consejos para tocar este tab!
Filtrar por:
cherylely446 avatar
The only thing brighter than the moonlight is the desire I see in your eyes. Perhaps we can turn up the heat a little? f1nd me on cherylely_mooo_com change _ to dot
21 Jul 2024
Comentario
stolk avatar
flag for FR(ISO2) (Nantes)
Tu aurais pu rajouter quelques notes pour combler quelques vides mais sinon la mélodie est là, bien jouer et merci de le partager avec nous :)
04 Sep 2012
Comentario

Top Tabs & Acordes de Ramin Djawadi, ¡no te pierdas estas canciones!

Acerca de esta canción: Game Of Thrones Theme

No hay información por esta canción.

¿Has versionado a Game Of Thrones Theme con tu Ukelele? Comparte tu trabajo!
Submit a cover